  0
SECTION
  2
HEADER
  9
$ACADVER
  1
AC1014
  9
$HANDSEED
  5
FFFF
  9
$MEASUREMENT
 70
     1
  0
ENDSEC
  0
SECTION
  2
TABLES
  0
TABLE
  2
VPORT
  5
8
330
0
100
AcDbSymbolTable
 70
     4
  0
VPORT
  5
2E
330
8
100
AcDbSymbolTableRecord
100
AcDbViewportTableRecord
  2
*ACTIVE
 70
     0
 10
0.0
 20
0.0
 11
1.0
 21
1.0
 12
210.0
 22
148.5
 13
0.0
 23
0.0
 14
10.0
 24
10.0
 15
10.0
 25
10.0
 16
0.0
 26
0.0
 36
1.0
 17
0.0
 27
0.0
 37
0.0
 40
341.0
 41
1.24
 42
50.0
 43
0.0
 44
0.0
 50
0.0
 51
0.0
 71
     0
 72
   100
 73
     1
 74
     3
 75
     0
 76
     0
 77
     0
 78
     0
  0
ENDTAB
  0
TABLE
  2
LTYPE
  5
5
330
0
100
AcDbSymbolTable
 70
     1
  0
LTYPE
  5
14
330
5
100
AcDbSymbolTableRecord
100
AcDbLinetypeTableRecord
  2
BYBLOCK
 70
     0
  3

 72
    65
 73
     0
 40
0.0
  0
LTYPE
  5
15
330
5
100
AcDbSymbolTableRecord
100
AcDbLinetypeTableRecord
  2
BYLAYER
 70
     0
  3

 72
    65
 73
     0
 40
0.0
  0
LTYPE
  5
16
330
5
100
AcDbSymbolTableRecord
100
AcDbLinetypeTableRecord
  2
CONTINUOUS
 70
     0
  3
Solid line
 72
    65
 73
     0
 40
0.0
  0
ENDTAB
  0
TABLE
  2
LAYER
  5
2
100
AcDbSymbolTable
 70
2
  0
LAYER
  5
50
100
AcDbSymbolTableRecord
100
AcDbLayerTableRecord
  2
0
 70
0
  6
CONTINUOUS
  0
LAYER
  5
51
100
AcDbSymbolTableRecord
100
AcDbLayerTableRecord
  2
Layer_1
 70
0
  6
CONTINUOUS
  0
ENDTAB
  0
TABLE
  2
STYLE
  5
3
330
0
100
AcDbSymbolTable
 70
     1
  0
STYLE
  5
11
330
3
100
AcDbSymbolTableRecord
100
AcDbTextStyleTableRecord
  2
STANDARD
 70
     0
 40
0.0
 41
1.0
 50
0.0
 71
     0
 42
2.5
  3
txt
  4

  0
ENDTAB
  0
TABLE
  2
VIEW
  5
6
330
0
100
AcDbSymbolTable
 70
     0
  0
ENDTAB
  0
TABLE
  2
UCS
  5
7
330
0
100
AcDbSymbolTable
 70
     0
  0
ENDTAB
  0
TABLE
  2
APPID
  5
9
330
0
100
AcDbSymbolTable
 70
     2
  0
APPID
  5
12
330
9
100
AcDbSymbolTableRecord
100
AcDbRegAppTableRecord
  2
ACAD
 70
     0
  0
ENDTAB
  0
TABLE
  2
DIMSTYLE
  5
A
330
0
100
AcDbSymbolTable
 70
     1
  0
DIMSTYLE
105
27
330
A
100
AcDbSymbolTableRecord
100
AcDbDimStyleTableRecord
  2
ISO-25
 70
     0
  3

  4

  5

  6

  7

 40
1.0
 41
2.5
 42
0.625
 43
3.75
 44
1.25
 45
0.0
 46
0.0
 47
0.0
 48
0.0
140
2.5
141
2.5
142
0.0
143
0.03937007874016
144
1.0
145
0.0
146
1.0
147
0.625
 71
     0
 72
     0
 73
     0
 74
     0
 75
     0
 76
     0
 77
     1
 78
     8
170
     0
171
     3
172
     1
173
     0
174
     0
175
     0
176
     0
177
     0
178
     0
270
     2
271
     2
272
     2
273
     2
274
     3
340
11
275
     0
280
     0
281
     0
282
     0
283
     0
284
     8
285
     0
286
     0
287
     3
288
     0
  0
ENDTAB
  0
TABLE
  2
BLOCK_RECORD
  5
1
330
0
100
AcDbSymbolTable
 70
     1
  0
BLOCK_RECORD
  5
1F
330
1
100
AcDbSymbolTableRecord
100
AcDbBlockTableRecord
  2
*MODEL_SPACE
  0
BLOCK_RECORD
  5
1B
330
1
100
AcDbSymbolTableRecord
100
AcDbBlockTableRecord
  2
*PAPER_SPACE
  0
ENDTAB
  0
ENDSEC
  0
SECTION
  2
BLOCKS
  0
BLOCK
  5
20
330
1F
100
AcDbEntity
  8
0
100
AcDbBlockBegin
  2
*MODEL_SPACE
 70
     0
 10
0.0
 20
0.0
 30
0.0
  3
*MODEL_SPACE
  1

  0
ENDBLK
  5
21
330
1F
100
AcDbEntity
  8
0
100
AcDbBlockEnd
  0
BLOCK
  5
1C
330
1B
100
AcDbEntity
 67
     1
  8
0
100
AcDbBlockBegin
  2
*PAPER_SPACE
  1

  0
ENDBLK
  5
1D
330
1B
100
AcDbEntity
 67
     1
  8
0
100
AcDbBlockEnd
  0
ENDSEC
  0
SECTION
  2
ENTITIES
  0
LINE
  5
100
100
AcDbEntity
  8
Layer_1
 62
5
100
AcDbLine
 10
110.765205
 20
115.235565
 30
0.0
 11
101.202878
 21
107.888153
 31
0.0
  0
LINE
  5
101
100
AcDbEntity
  8
Layer_1
 62
5
100
AcDbLine
 10
101.202878
 20
107.888153
 30
0.0
 11
104.799877
 21
96.262291
 31
0.0
  0
LINE
  5
102
100
AcDbEntity
  8
Layer_1
 62
5
100
AcDbLine
 10
104.799877
 20
96.262291
 30
0.0
 11
94.973320
 21
103.239871
 31
0.0
  0
LINE
  5
103
100
AcDbEntity
  8
Layer_1
 62
5
100
AcDbLine
 10
94.973320
 20
103.239871
 30
0.0
 11
85.211812
 21
96.168499
 31
0.0
  0
LINE
  5
104
100
AcDbEntity
  8
Layer_1
 62
5
100
AcDbLine
 10
85.211812
 20
96.168499
 30
0.0
 11
88.700993
 21
107.828292
 31
0.0
  0
LINE
  5
105
100
AcDbEntity
  8
Layer_1
 62
5
100
AcDbLine
 10
88.700993
 20
107.828292
 30
0.0
 11
79.071051
 21
115.083806
 31
0.0
  0
LINE
  5
106
100
AcDbEntity
  8
Layer_1
 62
5
100
AcDbLine
 10
79.071051
 20
115.083806
 30
0.0
 11
91.054040
 21
115.312375
 31
0.0
  0
LINE
  5
107
100
AcDbEntity
  8
Layer_1
 62
5
100
AcDbLine
 10
91.054040
 20
115.312375
 30
0.0
 11
94.863913
 21
126.867901
 31
0.0
  0
LINE
  5
108
100
AcDbEntity
  8
Layer_1
 62
5
100
AcDbLine
 10
94.863913
 20
126.867901
 30
0.0
 11
98.780631
 21
115.349372
 31
0.0
  0
LINE
  5
109
100
AcDbEntity
  8
Layer_1
 62
5
100
AcDbLine
 10
98.780631
 20
115.349372
 30
0.0
 11
110.765205
 21
115.235565
 31
0.0
  0
LINE
  5
10a
100
AcDbEntity
  8
Layer_1
 62
5
100
AcDbLine
 10
99.175907
 20
153.442958
 30
0.0
 11
96.604666
 21
151.467292
 31
0.0
  0
LINE
  5
10b
100
AcDbEntity
  8
Layer_1
 62
5
100
AcDbLine
 10
96.604666
 20
151.467292
 30
0.0
 11
97.571873
 21
148.341181
 31
0.0
  0
LINE
  5
10c
100
AcDbEntity
  8
Layer_1
 62
5
100
AcDbLine
 10
97.571873
 20
148.341181
 30
0.0
 11
94.929582
 21
150.217402
 31
0.0
  0
LINE
  5
10d
100
AcDbEntity
  8
Layer_1
 62
5
100
AcDbLine
 10
94.929582
 20
150.217402
 30
0.0
 11
92.304782
 21
148.315960
 31
0.0
  0
LINE
  5
10e
100
AcDbEntity
  8
Layer_1
 62
5
100
AcDbLine
 10
92.304782
 20
148.315960
 30
0.0
 11
93.242998
 21
151.451195
 31
0.0
  0
LINE
  5
10f
100
AcDbEntity
  8
Layer_1
 62
5
100
AcDbLine
 10
93.242998
 20
151.451195
 30
0.0
 11
90.653576
 21
153.402151
 31
0.0
  0
LINE
  5
110
100
AcDbEntity
  8
Layer_1
 62
5
100
AcDbLine
 10
90.653576
 20
153.402151
 30
0.0
 11
93.875716
 21
153.463612
 31
0.0
  0
LINE
  5
111
100
AcDbEntity
  8
Layer_1
 62
5
100
AcDbLine
 10
93.875716
 20
153.463612
 30
0.0
 11
94.900163
 21
156.570810
 31
0.0
  0
LINE
  5
112
100
AcDbEntity
  8
Layer_1
 62
5
100
AcDbLine
 10
94.900163
 20
156.570810
 30
0.0
 11
95.953341
 21
153.473560
 31
0.0
  0
LINE
  5
113
100
AcDbEntity
  8
Layer_1
 62
5
100
AcDbLine
 10
95.953341
 20
153.473560
 30
0.0
 11
99.175907
 21
153.442958
 31
0.0
  0
SPLINE
  5
114
100
AcDbEntity
  8
Layer_1
 62
7
100
AcDbSpline
 70
8
 71
3
 72
8
 73
4
 74
0
 40
0
 40
0
 40
0
 40
0
 40
1
 40
1
 40
1
 40
1
 10
90.656157
 20
155.397490
 30
0.0
 10
93.208105
 20
162.778940
 30
0.0
 10
96.665032
 20
162.740760
 30
0.0
 10
99.199258
 20
155.468490
 30
0.0
  0
LINE
  5
115
100
AcDbEntity
  8
Layer_1
 62
5
100
AcDbLine
 10
99.197006
 20
138.701608
 30
0.0
 11
96.625765
 21
136.725942
 31
0.0
  0
LINE
  5
116
100
AcDbEntity
  8
Layer_1
 62
5
100
AcDbLine
 10
96.625765
 20
136.725942
 30
0.0
 11
97.592972
 21
133.599831
 31
0.0
  0
LINE
  5
117
100
AcDbEntity
  8
Layer_1
 62
5
100
AcDbLine
 10
97.592972
 20
133.599831
 30
0.0
 11
94.950681
 21
135.476052
 31
0.0
  0
LINE
  5
118
100
AcDbEntity
  8
Layer_1
 62
5
100
AcDbLine
 10
94.950681
 20
135.476052
 30
0.0
 11
92.325881
 21
133.574610
 31
0.0
  0
LINE
  5
119
100
AcDbEntity
  8
Layer_1
 62
5
100
AcDbLine
 10
92.325881
 20
133.574610
 30
0.0
 11
93.264097
 21
136.709845
 31
0.0
  0
LINE
  5
11a
100
AcDbEntity
  8
Layer_1
 62
5
100
AcDbLine
 10
93.264097
 20
136.709845
 30
0.0
 11
90.674675
 21
138.660801
 31
0.0
  0
LINE
  5
11b
100
AcDbEntity
  8
Layer_1
 62
5
100
AcDbLine
 10
90.674675
 20
138.660801
 30
0.0
 11
93.896815
 21
138.722262
 31
0.0
  0
LINE
  5
11c
100
AcDbEntity
  8
Layer_1
 62
5
100
AcDbLine
 10
93.896815
 20
138.722262
 30
0.0
 11
94.921262
 21
141.829460
 31
0.0
  0
LINE
  5
11d
100
AcDbEntity
  8
Layer_1
 62
5
100
AcDbLine
 10
94.921262
 20
141.829460
 30
0.0
 11
95.974440
 21
138.732210
 31
0.0
  0
LINE
  5
11e
100
AcDbEntity
  8
Layer_1
 62
5
100
AcDbLine
 10
95.974440
 20
138.732210
 30
0.0
 11
99.197006
 21
138.701608
 31
0.0
  0
LINE
  5
11f
100
AcDbEntity
  8
Layer_1
 62
5
100
AcDbLine
 10
94.388420
 20
147.488010
 30
0.0
 11
95.520129
 21
147.488010
 31
0.0
  0
LINE
  5
120
100
AcDbEntity
  8
Layer_1
 62
5
100
AcDbLine
 10
95.520129
 20
147.488010
 30
0.0
 11
95.520129
 21
145.224592
 31
0.0
  0
LINE
  5
121
100
AcDbEntity
  8
Layer_1
 62
5
100
AcDbLine
 10
95.520129
 20
145.224592
 30
0.0
 11
94.388420
 21
145.224592
 31
0.0
  0
LINE
  5
122
100
AcDbEntity
  8
Layer_1
 62
5
100
AcDbLine
 10
94.388420
 20
145.224592
 30
0.0
 11
94.388420
 21
147.488010
 31
0.0
  0
LINE
  5
123
100
AcDbEntity
  8
Layer_1
 62
5
100
AcDbLine
 10
94.322403
 20
132.775790
 30
0.0
 11
95.454112
 21
132.775790
 31
0.0
  0
LINE
  5
124
100
AcDbEntity
  8
Layer_1
 62
5
100
AcDbLine
 10
95.454112
 20
132.775790
 30
0.0
 11
95.454112
 21
130.512372
 31
0.0
  0
LINE
  5
125
100
AcDbEntity
  8
Layer_1
 62
5
100
AcDbLine
 10
95.454112
 20
130.512372
 30
0.0
 11
94.322403
 21
130.512372
 31
0.0
  0
LINE
  5
126
100
AcDbEntity
  8
Layer_1
 62
5
100
AcDbLine
 10
94.322403
 20
130.512372
 30
0.0
 11
94.322403
 21
132.775790
 31
0.0
  0
SPLINE
  5
127
100
AcDbEntity
  8
Layer_1
 62
5
100
AcDbSpline
 70
8
 71
3
 72
8
 73
4
 74
0
 40
0
 40
0
 40
0
 40
0
 40
1
 40
1
 40
1
 40
1
 10
94.359822
 20
158.239240
 30
0.0
 10
94.359822
 20
158.037080
 30
0.0
 10
94.251971
 20
157.850276
 30
0.0
 10
94.076895
 20
157.749196
 30
0.0
  0
SPLINE
  5
128
100
AcDbEntity
  8
Layer_1
 62
5
100
AcDbSpline
 70
8
 71
3
 72
8
 73
4
 74
0
 40
0
 40
0
 40
0
 40
0
 40
1
 40
1
 40
1
 40
1
 10
94.076895
 20
157.749196
 30
0.0
 10
93.901819
 20
157.648116
 30
0.0
 10
93.686117
 20
157.648116
 30
0.0
 10
93.511041
 20
157.749196
 30
0.0
  0
SPLINE
  5
129
100
AcDbEntity
  8
Layer_1
 62
5
100
AcDbSpline
 70
8
 71
3
 72
8
 73
4
 74
0
 40
0
 40
0
 40
0
 40
0
 40
1
 40
1
 40
1
 40
1
 10
93.511041
 20
157.749196
 30
0.0
 10
93.335965
 20
157.850276
 30
0.0
 10
93.228114
 20
158.037080
 30
0.0
 10
93.228114
 20
158.239240
 30
0.0
  0
SPLINE
  5
12a
100
AcDbEntity
  8
Layer_1
 62
5
100
AcDbSpline
 70
8
 71
3
 72
8
 73
4
 74
0
 40
0
 40
0
 40
0
 40
0
 40
1
 40
1
 40
1
 40
1
 10
93.228114
 20
158.239240
 30
0.0
 10
93.228114
 20
158.441400
 30
0.0
 10
93.335965
 20
158.628204
 30
0.0
 10
93.511041
 20
158.729284
 30
0.0
  0
SPLINE
  5
12b
100
AcDbEntity
  8
Layer_1
 62
5
100
AcDbSpline
 70
8
 71
3
 72
8
 73
4
 74
0
 40
0
 40
0
 40
0
 40
0
 40
1
 40
1
 40
1
 40
1
 10
93.511041
 20
158.729284
 30
0.0
 10
93.686117
 20
158.830364
 30
0.0
 10
93.901819
 20
158.830364
 30
0.0
 10
94.076895
 20
158.729284
 30
0.0
  0
SPLINE
  5
12c
100
AcDbEntity
  8
Layer_1
 62
5
100
AcDbSpline
 70
8
 71
3
 72
8
 73
4
 74
0
 40
0
 40
0
 40
0
 40
0
 40
1
 40
1
 40
1
 40
1
 10
94.076895
 20
158.729284
 30
0.0
 10
94.251971
 20
158.628204
 30
0.0
 10
94.359822
 20
158.441400
 30
0.0
 10
94.359822
 20
158.239240
 30
0.0
  0
LINE
  5
12d
100
AcDbEntity
  8
Layer_1
 62
5
100
AcDbLine
 10
94.359822
 20
158.239240
 30
0.0
 11
94.359822
 21
158.239240
 31
0.0
  0
SPLINE
  5
12e
100
AcDbEntity
  8
Layer_1
 62
5
100
AcDbSpline
 70
8
 71
3
 72
8
 73
4
 74
0
 40
0
 40
0
 40
0
 40
0
 40
1
 40
1
 40
1
 40
1
 10
96.615033
 20
158.252330
 30
0.0
 10
96.615033
 20
158.050170
 30
0.0
 10
96.507182
 20
157.863366
 30
0.0
 10
96.332106
 20
157.762286
 30
0.0
  0
SPLINE
  5
12f
100
AcDbEntity
  8
Layer_1
 62
5
100
AcDbSpline
 70
8
 71
3
 72
8
 73
4
 74
0
 40
0
 40
0
 40
0
 40
0
 40
1
 40
1
 40
1
 40
1
 10
96.332106
 20
157.762286
 30
0.0
 10
96.157030
 20
157.661206
 30
0.0
 10
95.941328
 20
157.661206
 30
0.0
 10
95.766252
 20
157.762286
 30
0.0
  0
SPLINE
  5
130
100
AcDbEntity
  8
Layer_1
 62
5
100
AcDbSpline
 70
8
 71
3
 72
8
 73
4
 74
0
 40
0
 40
0
 40
0
 40
0
 40
1
 40
1
 40
1
 40
1
 10
95.766252
 20
157.762286
 30
0.0
 10
95.591176
 20
157.863366
 30
0.0
 10
95.483325
 20
158.050170
 30
0.0
 10
95.483325
 20
158.252330
 30
0.0
  0
SPLINE
  5
131
100
AcDbEntity
  8
Layer_1
 62
5
100
AcDbSpline
 70
8
 71
3
 72
8
 73
4
 74
0
 40
0
 40
0
 40
0
 40
0
 40
1
 40
1
 40
1
 40
1
 10
95.483325
 20
158.252330
 30
0.0
 10
95.483325
 20
158.454490
 30
0.0
 10
95.591176
 20
158.641294
 30
0.0
 10
95.766252
 20
158.742374
 30
0.0
  0
SPLINE
  5
132
100
AcDbEntity
  8
Layer_1
 62
5
100
AcDbSpline
 70
8
 71
3
 72
8
 73
4
 74
0
 40
0
 40
0
 40
0
 40
0
 40
1
 40
1
 40
1
 40
1
 10
95.766252
 20
158.742374
 30
0.0
 10
95.941328
 20
158.843454
 30
0.0
 10
96.157030
 20
158.843454
 30
0.0
 10
96.332106
 20
158.742374
 30
0.0
  0
SPLINE
  5
133
100
AcDbEntity
  8
Layer_1
 62
5
100
AcDbSpline
 70
8
 71
3
 72
8
 73
4
 74
0
 40
0
 40
0
 40
0
 40
0
 40
1
 40
1
 40
1
 40
1
 10
96.332106
 20
158.742374
 30
0.0
 10
96.507182
 20
158.641294
 30
0.0
 10
96.615033
 20
158.454490
 30
0.0
 10
96.615033
 20
158.252330
 30
0.0
  0
LINE
  5
134
100
AcDbEntity
  8
Layer_1
 62
5
100
AcDbLine
 10
96.615033
 20
158.252330
 30
0.0
 11
96.615033
 21
158.252330
 31
0.0
  0
LINE
  5
135
100
AcDbEntity
  8
Layer_1
 62
5
100
AcDbLine
 10
137.460575
 20
119.820788
 30
0.0
 11
134.787048
 21
121.655669
 31
0.0
  0
LINE
  5
136
100
AcDbEntity
  8
Layer_1
 62
5
100
AcDbLine
 10
134.787048
 20
121.655669
 30
0.0
 11
132.112823
 21
119.769779
 31
0.0
  0
LINE
  5
137
100
AcDbEntity
  8
Layer_1
 62
5
100
AcDbLine
 10
132.112823
 20
119.769779
 30
0.0
 11
133.080702
 21
122.862531
 31
0.0
  0
LINE
  5
138
100
AcDbEntity
  8
Layer_1
 62
5
100
AcDbLine
 10
133.080702
 20
122.862531
 30
0.0
 11
130.461217
 21
124.771286
 31
0.0
  0
LINE
  5
139
100
AcDbEntity
  8
Layer_1
 62
5
100
AcDbLine
 10
130.461217
 20
124.771286
 30
0.0
 11
133.732927
 21
124.847831
 31
0.0
  0
LINE
  5
13a
100
AcDbEntity
  8
Layer_1
 62
5
100
AcDbLine
 10
133.732927
 20
124.847831
 30
0.0
 11
134.788221
 21
127.913397
 31
0.0
  0
LINE
  5
13b
100
AcDbEntity
  8
Layer_1
 62
5
100
AcDbLine
 10
134.788221
 20
127.913397
 30
0.0
 11
135.842369
 21
124.867952
 31
0.0
  0
LINE
  5
13c
100
AcDbEntity
  8
Layer_1
 62
5
100
AcDbLine
 10
135.842369
 20
124.867952
 30
0.0
 11
139.114062
 21
124.853821
 31
0.0
  0
LINE
  5
13d
100
AcDbEntity
  8
Layer_1
 62
5
100
AcDbLine
 10
139.114062
 20
124.853821
 30
0.0
 11
136.493852
 21
122.895087
 31
0.0
  0
LINE
  5
13e
100
AcDbEntity
  8
Layer_1
 62
5
100
AcDbLine
 10
136.493852
 20
122.895087
 30
0.0
 11
137.460575
 21
119.820788
 31
0.0
  0
SPLINE
  5
13f
100
AcDbEntity
  8
Layer_1
 62
7
100
AcDbSpline
 70
8
 71
3
 72
8
 73
4
 74
0
 40
0
 40
0
 40
0
 40
0
 40
1
 40
1
 40
1
 40
1
 10
136.686695
 20
128.527536
 30
0.0
 10
144.495470
 20
128.381484
 30
0.0
 10
145.527404
 20
125.081951
 30
0.0
 10
139.394208
 20
120.424513
 30
0.0
  0
LINE
  5
140
100
AcDbEntity
  8
Layer_1
 62
5
100
AcDbLine
 10
123.447234
 20
115.245391
 30
0.0
 11
120.773706
 21
117.080272
 31
0.0
  0
LINE
  5
141
100
AcDbEntity
  8
Layer_1
 62
5
100
AcDbLine
 10
120.773706
 20
117.080272
 30
0.0
 11
118.099481
 21
115.194382
 31
0.0
  0
LINE
  5
142
100
AcDbEntity
  8
Layer_1
 62
5
100
AcDbLine
 10
118.099481
 20
115.194382
 30
0.0
 11
119.067361
 21
118.287134
 31
0.0
  0
LINE
  5
143
100
AcDbEntity
  8
Layer_1
 62
5
100
AcDbLine
 10
119.067361
 20
118.287134
 30
0.0
 11
116.447875
 21
120.195889
 31
0.0
  0
LINE
  5
144
100
AcDbEntity
  8
Layer_1
 62
5
100
AcDbLine
 10
116.447875
 20
120.195889
 30
0.0
 11
119.719585
 21
120.272434
 31
0.0
  0
LINE
  5
145
100
AcDbEntity
  8
Layer_1
 62
5
100
AcDbLine
 10
119.719585
 20
120.272434
 30
0.0
 11
120.774879
 21
123.338000
 31
0.0
  0
LINE
  5
146
100
AcDbEntity
  8
Layer_1
 62
5
100
AcDbLine
 10
120.774879
 20
123.338000
 30
0.0
 11
121.829028
 21
120.292555
 31
0.0
  0
LINE
  5
147
100
AcDbEntity
  8
Layer_1
 62
5
100
AcDbLine
 10
121.829028
 20
120.292555
 30
0.0
 11
125.100721
 21
120.278425
 31
0.0
  0
LINE
  5
148
100
AcDbEntity
  8
Layer_1
 62
5
100
AcDbLine
 10
125.100721
 20
120.278425
 30
0.0
 11
122.480511
 21
118.319690
 31
0.0
  0
LINE
  5
149
100
AcDbEntity
  8
Layer_1
 62
5
100
AcDbLine
 10
122.480511
 20
118.319690
 30
0.0
 11
123.447234
 21
115.245391
 31
0.0
  0
LINE
  5
14a
100
AcDbEntity
  8
Layer_1
 62
5
100
AcDbLine
 10
130.317658
 20
122.533777
 30
0.0
 11
130.667376
 21
121.457458
 31
0.0
  0
LINE
  5
14b
100
AcDbEntity
  8
Layer_1
 62
5
100
AcDbLine
 10
130.667376
 20
121.457458
 30
0.0
 11
128.514737
 21
120.758023
 31
0.0
  0
LINE
  5
14c
100
AcDbEntity
  8
Layer_1
 62
5
100
AcDbLine
 10
128.514737
 20
120.758023
 30
0.0
 11
128.165020
 21
121.834343
 31
0.0
  0
LINE
  5
14d
100
AcDbEntity
  8
Layer_1
 62
5
100
AcDbLine
 10
128.165020
 20
121.834343
 30
0.0
 11
130.317658
 21
122.533777
 31
0.0
  0
LINE
  5
14e
100
AcDbEntity
  8
Layer_1
 62
5
100
AcDbLine
 10
116.305110
 20
118.050238
 30
0.0
 11
116.654827
 21
116.973919
 31
0.0
  0
LINE
  5
14f
100
AcDbEntity
  8
Layer_1
 62
5
100
AcDbLine
 10
116.654827
 20
116.973919
 30
0.0
 11
114.502189
 21
116.274485
 31
0.0
  0
LINE
  5
150
100
AcDbEntity
  8
Layer_1
 62
5
100
AcDbLine
 10
114.502189
 20
116.274485
 30
0.0
 11
114.152471
 21
117.350804
 31
0.0
  0
LINE
  5
151
100
AcDbEntity
  8
Layer_1
 62
5
100
AcDbLine
 10
114.152471
 20
117.350804
 30
0.0
 11
116.305110
 21
118.050238
 31
0.0
  0
SPLINE
  5
152
100
AcDbEntity
  8
Layer_1
 62
5
100
AcDbSpline
 70
8
 71
3
 72
8
 73
4
 74
0
 40
0
 40
0
 40
0
 40
0
 40
1
 40
1
 40
1
 40
1
 10
140.533853
 20
125.883288
 30
0.0
 10
140.341587
 20
125.820817
 30
0.0
 10
140.130598
 20
125.865664
 30
0.0
 10
139.980364
 20
126.000935
 30
0.0
  0
SPLINE
  5
153
100
AcDbEntity
  8
Layer_1
 62
5
100
AcDbSpline
 70
8
 71
3
 72
8
 73
4
 74
0
 40
0
 40
0
 40
0
 40
0
 40
1
 40
1
 40
1
 40
1
 10
139.980364
 20
126.000935
 30
0.0
 10
139.830130
 20
126.136207
 30
0.0
 10
139.763474
 20
126.341352
 30
0.0
 10
139.805505
 20
126.539095
 30
0.0
  0
SPLINE
  5
154
100
AcDbEntity
  8
Layer_1
 62
5
100
AcDbSpline
 70
8
 71
3
 72
8
 73
4
 74
0
 40
0
 40
0
 40
0
 40
0
 40
1
 40
1
 40
1
 40
1
 10
139.805505
 20
126.539095
 30
0.0
 10
139.847537
 20
126.736838
 30
0.0
 10
139.991870
 20
126.897136
 30
0.0
 10
140.184136
 20
126.959607
 30
0.0
  0
SPLINE
  5
155
100
AcDbEntity
  8
Layer_1
 62
5
100
AcDbSpline
 70
8
 71
3
 72
8
 73
4
 74
0
 40
0
 40
0
 40
0
 40
0
 40
1
 40
1
 40
1
 40
1
 10
140.184136
 20
126.959607
 30
0.0
 10
140.376402
 20
127.022078
 30
0.0
 10
140.587391
 20
126.977231
 30
0.0
 10
140.737625
 20
126.841959
 30
0.0
  0
SPLINE
  5
156
100
AcDbEntity
  8
Layer_1
 62
5
100
AcDbSpline
 70
8
 71
3
 72
8
 73
4
 74
0
 40
0
 40
0
 40
0
 40
0
 40
1
 40
1
 40
1
 40
1
 10
140.737625
 20
126.841959
 30
0.0
 10
140.887859
 20
126.706687
 30
0.0
 10
140.954515
 20
126.501542
 30
0.0
 10
140.912484
 20
126.303800
 30
0.0
  0
SPLINE
  5
157
100
AcDbEntity
  8
Layer_1
 62
5
100
AcDbSpline
 70
8
 71
3
 72
8
 73
4
 74
0
 40
0
 40
0
 40
0
 40
0
 40
1
 40
1
 40
1
 40
1
 10
140.912484
 20
126.303800
 30
0.0
 10
140.870452
 20
126.106057
 30
0.0
 10
140.726119
 20
125.945759
 30
0.0
 10
140.533853
 20
125.883288
 30
0.0
  0
LINE
  5
158
100
AcDbEntity
  8
Layer_1
 62
5
100
AcDbLine
 10
140.533853
 20
125.883288
 30
0.0
 11
140.533853
 21
125.883288
 31
0.0
  0
SPLINE
  5
159
100
AcDbEntity
  8
Layer_1
 62
5
100
AcDbSpline
 70
8
 71
3
 72
8
 73
4
 74
0
 40
0
 40
0
 40
0
 40
0
 40
1
 40
1
 40
1
 40
1
 10
141.243203
 20
123.742506
 30
0.0
 10
141.050937
 20
123.680035
 30
0.0
 10
140.839948
 20
123.724882
 30
0.0
 10
140.689714
 20
123.860153
 30
0.0
  0
SPLINE
  5
15a
100
AcDbEntity
  8
Layer_1
 62
5
100
AcDbSpline
 70
8
 71
3
 72
8
 73
4
 74
0
 40
0
 40
0
 40
0
 40
0
 40
1
 40
1
 40
1
 40
1
 10
140.689714
 20
123.860153
 30
0.0
 10
140.539480
 20
123.995425
 30
0.0
 10
140.472824
 20
124.200570
 30
0.0
 10
140.514855
 20
124.398313
 30
0.0
  0
SPLINE
  5
15b
100
AcDbEntity
  8
Layer_1
 62
5
100
AcDbSpline
 70
8
 71
3
 72
8
 73
4
 74
0
 40
0
 40
0
 40
0
 40
0
 40
1
 40
1
 40
1
 40
1
 10
140.514855
 20
124.398313
 30
0.0
 10
140.556887
 20
124.596055
 30
0.0
 10
140.701220
 20
124.756354
 30
0.0
 10
140.893486
 20
124.818825
 30
0.0
  0
SPLINE
  5
15c
100
AcDbEntity
  8
Layer_1
 62
5
100
AcDbSpline
 70
8
 71
3
 72
8
 73
4
 74
0
 40
0
 40
0
 40
0
 40
0
 40
1
 40
1
 40
1
 40
1
 10
140.893486
 20
124.818825
 30
0.0
 10
141.085752
 20
124.881296
 30
0.0
 10
141.296741
 20
124.836449
 30
0.0
 10
141.446975
 20
124.701177
 30
0.0
  0
SPLINE
  5
15d
100
AcDbEntity
  8
Layer_1
 62
5
100
AcDbSpline
 70
8
 71
3
 72
8
 73
4
 74
0
 40
0
 40
0
 40
0
 40
0
 40
1
 40
1
 40
1
 40
1
 10
141.446975
 20
124.701177
 30
0.0
 10
141.597209
 20
124.565905
 30
0.0
 10
141.663865
 20
124.360760
 30
0.0
 10
141.621834
 20
124.163017
 30
0.0
  0
SPLINE
  5
15e
100
AcDbEntity
  8
Layer_1
 62
5
100
AcDbSpline
 70
8
 71
3
 72
8
 73
4
 74
0
 40
0
 40
0
 40
0
 40
0
 40
1
 40
1
 40
1
 40
1
 10
141.621834
 20
124.163017
 30
0.0
 10
141.579802
 20
123.965275
 30
0.0
 10
141.435469
 20
123.804976
 30
0.0
 10
141.243203
 20
123.742506
 30
0.0
  0
LINE
  5
15f
100
AcDbEntity
  8
Layer_1
 62
5
100
AcDbLine
 10
141.243203
 20
123.742506
 30
0.0
 11
141.243203
 21
123.742506
 31
0.0
  0
LINE
  5
160
100
AcDbEntity
  8
Layer_1
 62
5
100
AcDbLine
 10
117.032843
 20
72.735828
 30
0.0
 11
117.951754
 21
75.845513
 31
0.0
  0
LINE
  5
161
100
AcDbEntity
  8
Layer_1
 62
5
100
AcDbLine
 10
117.951754
 20
75.845513
 30
0.0
 11
115.331785
 21
77.806080
 31
0.0
  0
LINE
  5
162
100
AcDbEntity
  8
Layer_1
 62
5
100
AcDbLine
 10
115.331785
 20
77.806080
 30
0.0
 11
118.572258
 21
77.841285
 31
0.0
  0
LINE
  5
163
100
AcDbEntity
  8
Layer_1
 62
5
100
AcDbLine
 10
118.572258
 20
77.841285
 30
0.0
 11
119.578126
 21
80.922402
 31
0.0
  0
LINE
  5
164
100
AcDbEntity
  8
Layer_1
 62
5
100
AcDbLine
 10
119.578126
 20
80.922402
 30
0.0
 11
120.661939
 21
77.834474
 31
0.0
  0
LINE
  5
165
100
AcDbEntity
  8
Layer_1
 62
5
100
AcDbLine
 10
120.661939
 20
77.834474
 30
0.0
 11
123.903569
 21
77.778142
 31
0.0
  0
LINE
  5
166
100
AcDbEntity
  8
Layer_1
 62
5
100
AcDbLine
 10
123.903569
 20
77.778142
 30
0.0
 11
121.332928
 21
75.834493
 31
0.0
  0
LINE
  5
167
100
AcDbEntity
  8
Layer_1
 62
5
100
AcDbLine
 10
121.332928
 20
75.834493
 30
0.0
 11
122.330498
 21
72.718561
 31
0.0
  0
LINE
  5
168
100
AcDbEntity
  8
Layer_1
 62
5
100
AcDbLine
 10
122.330498
 20
72.718561
 30
0.0
 11
119.657942
 21
74.605247
 31
0.0
  0
LINE
  5
169
100
AcDbEntity
  8
Layer_1
 62
5
100
AcDbLine
 10
119.657942
 20
74.605247
 30
0.0
 11
117.032843
 21
72.735828
 31
0.0
  0
SPLINE
  5
16a
100
AcDbEntity
  8
Layer_1
 62
7
100
AcDbSpline
 70
8
 71
3
 72
8
 73
4
 74
0
 40
0
 40
0
 40
0
 40
0
 40
1
 40
1
 40
1
 40
1
 10
125.074311
 20
76.162365
 30
0.0
 10
127.348451
 20
68.690646
 30
0.0
 10
124.529294
 20
66.689606
 30
0.0
 10
118.204545
 20
71.083395
 30
0.0
  0
LINE
  5
16b
100
AcDbEntity
  8
Layer_1
 62
5
100
AcDbLine
 10
108.351022
 20
84.649432
 30
0.0
 11
109.269932
 21
87.759118
 31
0.0
  0
LINE
  5
16c
100
AcDbEntity
  8
Layer_1
 62
5
100
AcDbLine
 10
109.269932
 20
87.759118
 30
0.0
 11
106.649963
 21
89.719685
 31
0.0
  0
LINE
  5
16d
100
AcDbEntity
  8
Layer_1
 62
5
100
AcDbLine
 10
106.649963
 20
89.719685
 30
0.0
 11
109.890436
 21
89.754889
 31
0.0
  0
LINE
  5
16e
100
AcDbEntity
  8
Layer_1
 62
5
100
AcDbLine
 10
109.890436
 20
89.754889
 30
0.0
 11
110.896305
 21
92.836006
 31
0.0
  0
LINE
  5
16f
100
AcDbEntity
  8
Layer_1
 62
5
100
AcDbLine
 10
110.896305
 20
92.836006
 30
0.0
 11
111.980117
 21
89.748079
 31
0.0
  0
LINE
  5
170
100
AcDbEntity
  8
Layer_1
 62
5
100
AcDbLine
 10
111.980117
 20
89.748079
 30
0.0
 11
115.221747
 21
89.691746
 31
0.0
  0
LINE
  5
171
100
AcDbEntity
  8
Layer_1
 62
5
100
AcDbLine
 10
115.221747
 20
89.691746
 30
0.0
 11
112.651107
 21
87.748097
 31
0.0
  0
LINE
  5
172
100
AcDbEntity
  8
Layer_1
 62
5
100
AcDbLine
 10
112.651107
 20
87.748097
 30
0.0
 11
113.648677
 21
84.632166
 31
0.0
  0
LINE
  5
173
100
AcDbEntity
  8
Layer_1
 62
5
100
AcDbLine
 10
113.648677
 20
84.632166
 30
0.0
 11
110.976120
 21
86.518851
 31
0.0
  0
LINE
  5
174
100
AcDbEntity
  8
Layer_1
 62
5
100
AcDbLine
 10
110.976120
 20
86.518851
 30
0.0
 11
108.351022
 21
84.649432
 31
0.0
  0
LINE
  5
175
100
AcDbEntity
  8
Layer_1
 62
5
100
AcDbLine
 10
117.405767
 20
80.367505
 30
0.0
 11
116.490195
 21
79.702304
 31
0.0
  0
LINE
  5
176
100
AcDbEntity
  8
Layer_1
 62
5
100
AcDbLine
 10
116.490195
 20
79.702304
 30
0.0
 11
115.159792
 21
81.533447
 31
0.0
  0
LINE
  5
177
100
AcDbEntity
  8
Layer_1
 62
5
100
AcDbLine
 10
115.159792
 20
81.533447
 30
0.0
 11
116.075363
 21
82.198649
 31
0.0
  0
LINE
  5
178
100
AcDbEntity
  8
Layer_1
 62
5
100
AcDbLine
 10
116.075363
 20
82.198649
 30
0.0
 11
117.405767
 21
80.367505
 31
0.0
  0
LINE
  5
179
100
AcDbEntity
  8
Layer_1
 62
5
100
AcDbLine
 10
108.811552
 20
92.308742
 30
0.0
 11
107.895981
 21
91.643540
 31
0.0
  0
LINE
  5
17a
100
AcDbEntity
  8
Layer_1
 62
5
100
AcDbLine
 10
107.895981
 20
91.643540
 30
0.0
 11
106.565577
 21
93.474683
 31
0.0
  0
LINE
  5
17b
100
AcDbEntity
  8
Layer_1
 62
5
100
AcDbLine
 10
106.565577
 20
93.474683
 30
0.0
 11
107.481149
 21
94.139885
 31
0.0
  0
LINE
  5
17c
100
AcDbEntity
  8
Layer_1
 62
5
100
AcDbLine
 10
107.481149
 20
94.139885
 30
0.0
 11
108.811552
 21
92.308742
 31
0.0
  0
SPLINE
  5
17d
100
AcDbEntity
  8
Layer_1
 62
5
100
AcDbSpline
 70
8
 71
3
 72
8
 73
4
 74
0
 40
0
 40
0
 40
0
 40
0
 40
1
 40
1
 40
1
 40
1
 10
123.748319
 20
71.686382
 30
0.0
 10
123.629492
 20
71.849933
 30
0.0
 10
123.606945
 20
72.064454
 30
0.0
 10
123.689171
 20
72.249137
 30
0.0
  0
SPLINE
  5
17e
100
AcDbEntity
  8
Layer_1
 62
5
100
AcDbSpline
 70
8
 71
3
 72
8
 73
4
 74
0
 40
0
 40
0
 40
0
 40
0
 40
1
 40
1
 40
1
 40
1
 10
123.689171
 20
72.249137
 30
0.0
 10
123.771397
 20
72.433820
 30
0.0
 10
123.945904
 20
72.560606
 30
0.0
 10
124.146957
 20
72.581738
 30
0.0
  0
SPLINE
  5
17f
100
AcDbEntity
  8
Layer_1
 62
5
100
AcDbSpline
 70
8
 71
3
 72
8
 73
4
 74
0
 40
0
 40
0
 40
0
 40
0
 40
1
 40
1
 40
1
 40
1
 10
124.146957
 20
72.581738
 30
0.0
 10
124.348009
 20
72.602869
 30
0.0
 10
124.545063
 20
72.515135
 30
0.0
 10
124.663890
 20
72.351584
 30
0.0
  0
SPLINE
  5
180
100
AcDbEntity
  8
Layer_1
 62
5
100
AcDbSpline
 70
8
 71
3
 72
8
 73
4
 74
0
 40
0
 40
0
 40
0
 40
0
 40
1
 40
1
 40
1
 40
1
 10
124.663890
 20
72.351584
 30
0.0
 10
124.782717
 20
72.188033
 30
0.0
 10
124.805264
 20
71.973512
 30
0.0
 10
124.723038
 20
71.788829
 30
0.0
  0
SPLINE
  5
181
100
AcDbEntity
  8
Layer_1
 62
5
100
AcDbSpline
 70
8
 71
3
 72
8
 73
4
 74
0
 40
0
 40
0
 40
0
 40
0
 40
1
 40
1
 40
1
 40
1
 10
124.723038
 20
71.788829
 30
0.0
 10
124.640812
 20
71.604147
 30
0.0
 10
124.466305
 20
71.477360
 30
0.0
 10
124.265252
 20
71.456229
 30
0.0
  0
SPLINE
  5
182
100
AcDbEntity
  8
Layer_1
 62
5
100
AcDbSpline
 70
8
 71
3
 72
8
 73
4
 74
0
 40
0
 40
0
 40
0
 40
0
 40
1
 40
1
 40
1
 40
1
 10
124.265252
 20
71.456229
 30
0.0
 10
124.064199
 20
71.435097
 30
0.0
 10
123.867145
 20
71.522831
 30
0.0
 10
123.748319
 20
71.686382
 30
0.0
  0
LINE
  5
183
100
AcDbEntity
  8
Layer_1
 62
5
100
AcDbLine
 10
123.748319
 20
71.686382
 30
0.0
 11
123.748319
 21
71.686382
 31
0.0
  0
SPLINE
  5
184
100
AcDbEntity
  8
Layer_1
 62
5
100
AcDbSpline
 70
8
 71
3
 72
8
 73
4
 74
0
 40
0
 40
0
 40
0
 40
0
 40
1
 40
1
 40
1
 40
1
 10
121.931515
 20
70.350212
 30
0.0
 10
121.812688
 20
70.513763
 30
0.0
 10
121.790141
 20
70.728284
 30
0.0
 10
121.872367
 20
70.912967
 30
0.0
  0
SPLINE
  5
185
100
AcDbEntity
  8
Layer_1
 62
5
100
AcDbSpline
 70
8
 71
3
 72
8
 73
4
 74
0
 40
0
 40
0
 40
0
 40
0
 40
1
 40
1
 40
1
 40
1
 10
121.872367
 20
70.912967
 30
0.0
 10
121.954593
 20
71.097650
 30
0.0
 10
122.129100
 20
71.224436
 30
0.0
 10
122.330153
 20
71.245568
 30
0.0
  0
SPLINE
  5
186
100
AcDbEntity
  8
Layer_1
 62
5
100
AcDbSpline
 70
8
 71
3
 72
8
 73
4
 74
0
 40
0
 40
0
 40
0
 40
0
 40
1
 40
1
 40
1
 40
1
 10
122.330153
 20
71.245568
 30
0.0
 10
122.531206
 20
71.266699
 30
0.0
 10
122.728260
 20
71.178965
 30
0.0
 10
122.847087
 20
71.015414
 30
0.0
  0
SPLINE
  5
187
100
AcDbEntity
  8
Layer_1
 62
5
100
AcDbSpline
 70
8
 71
3
 72
8
 73
4
 74
0
 40
0
 40
0
 40
0
 40
0
 40
1
 40
1
 40
1
 40
1
 10
122.847087
 20
71.015414
 30
0.0
 10
122.965914
 20
70.851863
 30
0.0
 10
122.988461
 20
70.637342
 30
0.0
 10
122.906235
 20
70.452659
 30
0.0
  0
SPLINE
  5
188
100
AcDbEntity
  8
Layer_1
 62
5
100
AcDbSpline
 70
8
 71
3
 72
8
 73
4
 74
0
 40
0
 40
0
 40
0
 40
0
 40
1
 40
1
 40
1
 40
1
 10
122.906235
 20
70.452659
 30
0.0
 10
122.824009
 20
70.267977
 30
0.0
 10
122.649502
 20
70.141190
 30
0.0
 10
122.448449
 20
70.120059
 30
0.0
  0
SPLINE
  5
189
100
AcDbEntity
  8
Layer_1
 62
5
100
AcDbSpline
 70
8
 71
3
 72
8
 73
4
 74
0
 40
0
 40
0
 40
0
 40
0
 40
1
 40
1
 40
1
 40
1
 10
122.448449
 20
70.120059
 30
0.0
 10
122.247396
 20
70.098927
 30
0.0
 10
122.050342
 20
70.186661
 30
0.0
 10
121.931515
 20
70.350212
 30
0.0
  0
LINE
  5
18a
100
AcDbEntity
  8
Layer_1
 62
5
100
AcDbLine
 10
121.931515
 20
70.350212
 30
0.0
 11
121.931515
 21
70.350212
 31
0.0
  0
LINE
  5
18b
100
AcDbEntity
  8
Layer_1
 62
5
100
AcDbLine
 10
66.114151
 20
77.402803
 30
0.0
 11
69.355596
 21
77.489813
 31
0.0
  0
LINE
  5
18c
100
AcDbEntity
  8
Layer_1
 62
5
100
AcDbLine
 10
69.355596
 20
77.489813
 30
0.0
 11
70.410591
 21
80.587400
 31
0.0
  0
LINE
  5
18d
100
AcDbEntity
  8
Layer_1
 62
5
100
AcDbLine
 10
70.410591
 20
80.587400
 30
0.0
 11
71.445434
 21
77.516405
 31
0.0
  0
LINE
  5
18e
100
AcDbEntity
  8
Layer_1
 62
5
100
AcDbLine
 10
71.445434
 20
77.516405
 30
0.0
 11
74.686581
 21
77.511885
 31
0.0
  0
LINE
  5
18f
100
AcDbEntity
  8
Layer_1
 62
5
100
AcDbLine
 10
74.686581
 20
77.511885
 30
0.0
 11
72.084704
 21
75.526896
 31
0.0
  0
LINE
  5
190
100
AcDbEntity
  8
Layer_1
 62
5
100
AcDbLine
 10
72.084704
 20
75.526896
 30
0.0
 11
73.032847
 21
72.426515
 31
0.0
  0
LINE
  5
191
100
AcDbEntity
  8
Layer_1
 62
5
100
AcDbLine
 10
73.032847
 20
72.426515
 30
0.0
 11
70.389956
 21
74.270719
 31
0.0
  0
LINE
  5
192
100
AcDbEntity
  8
Layer_1
 62
5
100
AcDbLine
 10
70.389956
 20
74.270719
 30
0.0
 11
67.734795
 21
72.359098
 31
0.0
  0
LINE
  5
193
100
AcDbEntity
  8
Layer_1
 62
5
100
AcDbLine
 10
67.734795
 20
72.359098
 30
0.0
 11
68.703274
 21
75.483868
 31
0.0
  0
LINE
  5
194
100
AcDbEntity
  8
Layer_1
 62
5
100
AcDbLine
 10
68.703274
 20
75.483868
 30
0.0
 11
66.114151
 21
77.402803
 31
0.0
  0
SPLINE
  5
195
100
AcDbEntity
  8
Layer_1
 62
7
100
AcDbSpline
 70
8
 71
3
 72
8
 73
4
 74
0
 40
0
 40
0
 40
0
 40
0
 40
1
 40
1
 40
1
 40
1
 10
71.857931
 20
70.813771
 30
0.0
 10
65.454652
 20
66.342047
 30
0.0
 10
62.680383
 20
68.404869
 30
0.0
 10
64.904669
 20
75.777818
 30
0.0
  0
LINE
  5
196
100
AcDbEntity
  8
Layer_1
 62
5
100
AcDbLine
 10
74.761831
 20
89.341212
 30
0.0
 11
78.003277
 21
89.428222
 31
0.0
  0
LINE
  5
197
100
AcDbEntity
  8
Layer_1
 62
5
100
AcDbLine
 10
78.003277
 20
89.428222
 30
0.0
 11
79.058272
 21
92.525809
 31
0.0
  0
LINE
  5
198
100
AcDbEntity
  8
Layer_1
 62
5
100
AcDbLine
 10
79.058272
 20
92.525809
 30
0.0
 11
80.093115
 21
89.454815
 31
0.0
  0
LINE
  5
199
100
AcDbEntity
  8
Layer_1
 62
5
100
AcDbLine
 10
80.093115
 20
89.454815
 30
0.0
 11
83.334262
 21
89.450294
 31
0.0
  0
LINE
  5
19a
100
AcDbEntity
  8
Layer_1
 62
5
100
AcDbLine
 10
83.334262
 20
89.450294
 30
0.0
 11
80.732384
 21
87.465305
 31
0.0
  0
LINE
  5
19b
100
AcDbEntity
  8
Layer_1
 62
5
100
AcDbLine
 10
80.732384
 20
87.465305
 30
0.0
 11
81.680528
 21
84.364924
 31
0.0
  0
LINE
  5
19c
100
AcDbEntity
  8
Layer_1
 62
5
100
AcDbLine
 10
81.680528
 20
84.364924
 30
0.0
 11
79.037637
 21
86.209128
 31
0.0
  0
LINE
  5
19d
100
AcDbEntity
  8
Layer_1
 62
5
100
AcDbLine
 10
79.037637
 20
86.209128
 30
0.0
 11
76.382476
 21
84.297507
 31
0.0
  0
LINE
  5
19e
100
AcDbEntity
  8
Layer_1
 62
5
100
AcDbLine
 10
76.382476
 20
84.297507
 30
0.0
 11
77.350955
 21
87.422277
 31
0.0
  0
LINE
  5
19f
100
AcDbEntity
  8
Layer_1
 62
5
100
AcDbLine
 10
77.350955
 20
87.422277
 30
0.0
 11
74.761831
 21
89.341212
 31
0.0
  0
LINE
  5
1a0
100
AcDbEntity
  8
Layer_1
 62
5
100
AcDbLine
 10
73.487547
 20
79.406450
 30
0.0
 11
72.571976
 21
80.071651
 31
0.0
  0
LINE
  5
1a1
100
AcDbEntity
  8
Layer_1
 62
5
100
AcDbLine
 10
72.571976
 20
80.071651
 30
0.0
 11
73.902379
 21
81.902795
 31
0.0
  0
LINE
  5
1a2
100
AcDbEntity
  8
Layer_1
 62
5
100
AcDbLine
 10
73.902379
 20
81.902795
 30
0.0
 11
74.817951
 21
81.237593
 31
0.0
  0
LINE
  5
1a3
100
AcDbEntity
  8
Layer_1
 62
5
100
AcDbLine
 10
74.817951
 20
81.237593
 30
0.0
 11
73.487547
 21
79.406450
 31
0.0
  0
LINE
  5
1a4
100
AcDbEntity
  8
Layer_1
 62
5
100
AcDbLine
 10
82.188580
 20
91.270078
 30
0.0
 11
81.273008
 21
91.935280
 31
0.0
  0
LINE
  5
1a5
100
AcDbEntity
  8
Layer_1
 62
5
100
AcDbLine
 10
81.273008
 20
91.935280
 30
0.0
 11
82.603411
 21
93.766423
 31
0.0
  0
LINE
  5
1a6
100
AcDbEntity
  8
Layer_1
 62
5
100
AcDbLine
 10
82.603411
 20
93.766423
 30
0.0
 11
83.518983
 21
93.101222
 31
0.0
  0
LINE
  5
1a7
100
AcDbEntity
  8
Layer_1
 62
5
100
AcDbLine
 10
83.518983
 20
93.101222
 30
0.0
 11
82.188580
 21
91.270078
 31
0.0
  0
SPLINE
  5
1a8
100
AcDbEntity
  8
Layer_1
 62
5
100
AcDbSpline
 70
8
 71
3
 72
8
 73
4
 74
0
 40
0
 40
0
 40
0
 40
0
 40
1
 40
1
 40
1
 40
1
 10
67.191265
 20
70.691710
 30
0.0
 10
67.310092
 20
70.855261
 30
0.0
 10
67.507146
 20
70.942995
 30
0.0
 10
67.708199
 20
70.921863
 30
0.0
  0
SPLINE
  5
1a9
100
AcDbEntity
  8
Layer_1
 62
5
100
AcDbSpline
 70
8
 71
3
 72
8
 73
4
 74
0
 40
0
 40
0
 40
0
 40
0
 40
1
 40
1
 40
1
 40
1
 10
67.708199
 20
70.921863
 30
0.0
 10
67.909251
 20
70.900732
 30
0.0
 10
68.083758
 20
70.773945
 30
0.0
 10
68.165984
 20
70.589263
 30
0.0
  0
SPLINE
  5
1aa
100
AcDbEntity
  8
Layer_1
 62
5
100
AcDbSpline
 70
8
 71
3
 72
8
 73
4
 74
0
 40
0
 40
0
 40
0
 40
0
 40
1
 40
1
 40
1
 40
1
 10
68.165984
 20
70.589263
 30
0.0
 10
68.248210
 20
70.404580
 30
0.0
 10
68.225663
 20
70.190059
 30
0.0
 10
68.106837
 20
70.026508
 30
0.0
  0
SPLINE
  5
1ab
100
AcDbEntity
  8
Layer_1
 62
5
100
AcDbSpline
 70
8
 71
3
 72
8
 73
4
 74
0
 40
0
 40
0
 40
0
 40
0
 40
1
 40
1
 40
1
 40
1
 10
68.106837
 20
70.026508
 30
0.0
 10
67.988010
 20
69.862957
 30
0.0
 10
67.790956
 20
69.775223
 30
0.0
 10
67.589903
 20
69.796354
 30
0.0
  0
SPLINE
  5
1ac
100
AcDbEntity
  8
Layer_1
 62
5
100
AcDbSpline
 70
8
 71
3
 72
8
 73
4
 74
0
 40
0
 40
0
 40
0
 40
0
 40
1
 40
1
 40
1
 40
1
 10
67.589903
 20
69.796354
 30
0.0
 10
67.388850
 20
69.817486
 30
0.0
 10
67.214343
 20
69.944272
 30
0.0
 10
67.132117
 20
70.128955
 30
0.0
  0
SPLINE
  5
1ad
100
AcDbEntity
  8
Layer_1
 62
5
100
AcDbSpline
 70
8
 71
3
 72
8
 73
4
 74
0
 40
0
 40
0
 40
0
 40
0
 40
1
 40
1
 40
1
 40
1
 10
67.132117
 20
70.128955
 30
0.0
 10
67.049891
 20
70.313638
 30
0.0
 10
67.072438
 20
70.528159
 30
0.0
 10
67.191265
 20
70.691710
 30
0.0
  0
LINE
  5
1ae
100
AcDbEntity
  8
Layer_1
 62
5
100
AcDbLine
 10
67.191265
 20
70.691710
 30
0.0
 11
67.191265
 21
70.691710
 31
0.0
  0
SPLINE
  5
1af
100
AcDbEntity
  8
Layer_1
 62
5
100
AcDbSpline
 70
8
 71
3
 72
8
 73
4
 74
0
 40
0
 40
0
 40
0
 40
0
 40
1
 40
1
 40
1
 40
1
 10
65.359068
 20
72.006693
 30
0.0
 10
65.477895
 20
72.170245
 30
0.0
 10
65.674949
 20
72.257979
 30
0.0
 10
65.876002
 20
72.236847
 30
0.0
  0
SPLINE
  5
1b0
100
AcDbEntity
  8
Layer_1
 62
5
100
AcDbSpline
 70
8
 71
3
 72
8
 73
4
 74
0
 40
0
 40
0
 40
0
 40
0
 40
1
 40
1
 40
1
 40
1
 10
65.876002
 20
72.236847
 30
0.0
 10
66.077055
 20
72.215716
 30
0.0
 10
66.251562
 20
72.088929
 30
0.0
 10
66.333788
 20
71.904246
 30
0.0
  0
SPLINE
  5
1b1
100
AcDbEntity
  8
Layer_1
 62
5
100
AcDbSpline
 70
8
 71
3
 72
8
 73
4
 74
0
 40
0
 40
0
 40
0
 40
0
 40
1
 40
1
 40
1
 40
1
 10
66.333788
 20
71.904246
 30
0.0
 10
66.416014
 20
71.719564
 30
0.0
 10
66.393467
 20
71.505043
 30
0.0
 10
66.274640
 20
71.341492
 30
0.0
  0
SPLINE
  5
1b2
100
AcDbEntity
  8
Layer_1
 62
5
100
AcDbSpline
 70
8
 71
3
 72
8
 73
4
 74
0
 40
0
 40
0
 40
0
 40
0
 40
1
 40
1
 40
1
 40
1
 10
66.274640
 20
71.341492
 30
0.0
 10
66.155813
 20
71.177941
 30
0.0
 10
65.958759
 20
71.090206
 30
0.0
 10
65.757706
 20
71.111338
 30
0.0
  0
SPLINE
  5
1b3
100
AcDbEntity
  8
Layer_1
 62
5
100
AcDbSpline
 70
8
 71
3
 72
8
 73
4
 74
0
 40
0
 40
0
 40
0
 40
0
 40
1
 40
1
 40
1
 40
1
 10
65.757706
 20
71.111338
 30
0.0
 10
65.556653
 20
71.132469
 30
0.0
 10
65.382146
 20
71.259256
 30
0.0
 10
65.299920
 20
71.443939
 30
0.0
  0
SPLINE
  5
1b4
100
AcDbEntity
  8
Layer_1
 62
5
100
AcDbSpline
 70
8
 71
3
 72
8
 73
4
 74
0
 40
0
 40
0
 40
0
 40
0
 40
1
 40
1
 40
1
 40
1
 10
65.299920
 20
71.443939
 30
0.0
 10
65.217694
 20
71.628621
 30
0.0
 10
65.240241
 20
71.843142
 30
0.0
 10
65.359068
 20
72.006693
 30
0.0
  0
LINE
  5
1b5
100
AcDbEntity
  8
Layer_1
 62
5
100
AcDbLine
 10
65.359068
 20
72.006693
 30
0.0
 11
65.359068
 21
72.006693
 31
0.0
  0
LINE
  5
1b6
100
AcDbEntity
  8
Layer_1
 62
5
100
AcDbLine
 10
55.023346
 20
127.212880
 30
0.0
 11
56.107759
 21
124.156970
 31
0.0
  0
LINE
  5
1b7
100
AcDbEntity
  8
Layer_1
 62
5
100
AcDbLine
 10
56.107759
 20
124.156970
 30
0.0
 11
59.379751
 21
124.110817
 31
0.0
  0
LINE
  5
1b8
100
AcDbEntity
  8
Layer_1
 62
5
100
AcDbLine
 10
59.379751
 20
124.110817
 30
0.0
 11
56.778846
 21
122.177633
 31
0.0
  0
LINE
  5
1b9
100
AcDbEntity
  8
Layer_1
 62
5
100
AcDbLine
 10
56.778846
 20
122.177633
 30
0.0
 11
57.776116
 21
119.093723
 31
0.0
  0
LINE
  5
1ba
100
AcDbEntity
  8
Layer_1
 62
5
100
AcDbLine
 10
57.776116
 20
119.093723
 30
0.0
 11
55.084255
 21
120.954860
 31
0.0
  0
LINE
  5
1bb
100
AcDbEntity
  8
Layer_1
 62
5
100
AcDbLine
 10
55.084255
 20
120.954860
 30
0.0
 11
52.428610
 21
119.095051
 31
0.0
  0
LINE
  5
1bc
100
AcDbEntity
  8
Layer_1
 62
5
100
AcDbLine
 10
52.428610
 20
119.095051
 30
0.0
 11
53.365854
 21
122.178481
 31
0.0
  0
LINE
  5
1bd
100
AcDbEntity
  8
Layer_1
 62
5
100
AcDbLine
 10
53.365854
 20
122.178481
 30
0.0
 11
50.727304
 21
124.112965
 31
0.0
  0
LINE
  5
1be
100
AcDbEntity
  8
Layer_1
 62
5
100
AcDbLine
 10
50.727304
 20
124.112965
 30
0.0
 11
53.998414
 21
124.157494
 31
0.0
  0
LINE
  5
1bf
100
AcDbEntity
  8
Layer_1
 62
5
100
AcDbLine
 10
53.998414
 20
124.157494
 30
0.0
 11
55.023346
 21
127.212880
 31
0.0
  0
SPLINE
  5
1c0
100
AcDbEntity
  8
Layer_1
 62
7
100
AcDbSpline
 70
8
 71
3
 72
8
 73
4
 74
0
 40
0
 40
0
 40
0
 40
0
 40
1
 40
1
 40
1
 40
1
 10
50.531730
 20
119.714097
 30
0.0
 10
44.300146
 20
124.422139
 30
0.0
 10
45.404710
 20
127.698072
 30
0.0
 10
53.104144
 20
127.861017
 30
0.0
  0
LINE
  5
1c1
100
AcDbEntity
  8
Layer_1
 62
5
100
AcDbLine
 10
69.049728
 20
122.677618
 30
0.0
 11
70.134141
 21
119.621708
 31
0.0
  0
LINE
  5
1c2
100
AcDbEntity
  8
Layer_1
 62
5
100
AcDbLine
 10
70.134141
 20
119.621708
 30
0.0
 11
73.406133
 21
119.575555
 31
0.0
  0
LINE
  5
1c3
100
AcDbEntity
  8
Layer_1
 62
5
100
AcDbLine
 10
73.406133
 20
119.575555
 30
0.0
 11
70.805228
 21
117.642371
 31
0.0
  0
LINE
  5
1c4
100
AcDbEntity
  8
Layer_1
 62
5
100
AcDbLine
 10
70.805228
 20
117.642371
 30
0.0
 11
71.802498
 21
114.558461
 31
0.0
  0
LINE
  5
1c5
100
AcDbEntity
  8
Layer_1
 62
5
100
AcDbLine
 10
71.802498
 20
114.558461
 30
0.0
 11
69.110637
 21
116.419598
 31
0.0
  0
LINE
  5
1c6
100
AcDbEntity
  8
Layer_1
 62
5
100
AcDbLine
 10
69.110637
 20
116.419598
 30
0.0
 11
66.454992
 21
114.559789
 31
0.0
  0
LINE
  5
1c7
100
AcDbEntity
  8
Layer_1
 62
5
100
AcDbLine
 10
66.454992
 20
114.559789
 30
0.0
 11
67.392236
 21
117.643219
 31
0.0
  0
LINE
  5
1c8
100
AcDbEntity
  8
Layer_1
 62
5
100
AcDbLine
 10
67.392236
 20
117.643219
 30
0.0
 11
64.753686
 21
119.577704
 31
0.0
  0
LINE
  5
1c9
100
AcDbEntity
  8
Layer_1
 62
5
100
AcDbLine
 10
64.753686
 20
119.577704
 30
0.0
 11
68.024796
 21
119.622232
 31
0.0
  0
LINE
  5
1ca
100
AcDbEntity
  8
Layer_1
 62
5
100
AcDbLine
 10
68.024796
 20
119.622232
 30
0.0
 11
69.049728
 21
122.677618
 31
0.0
  0
LINE
  5
1cb
100
AcDbEntity
  8
Layer_1
 62
5
100
AcDbLine
 10
59.207432
 20
120.819524
 30
0.0
 11
59.557149
 21
121.895843
 31
0.0
  0
LINE
  5
1cc
100
AcDbEntity
  8
Layer_1
 62
5
100
AcDbLine
 10
59.557149
 20
121.895843
 30
0.0
 11
61.709788
 21
121.196409
 31
0.0
  0
LINE
  5
1cd
100
AcDbEntity
  8
Layer_1
 62
5
100
AcDbLine
 10
61.709788
 20
121.196409
 30
0.0
 11
61.360070
 21
120.120089
 31
0.0
  0
LINE
  5
1ce
100
AcDbEntity
  8
Layer_1
 62
5
100
AcDbLine
 10
61.360070
 20
120.120089
 30
0.0
 11
59.207432
 21
120.819524
 31
0.0
  0
LINE
  5
1cf
100
AcDbEntity
  8
Layer_1
 62
5
100
AcDbLine
 10
73.179180
 20
116.210413
 30
0.0
 11
73.528897
 21
117.286732
 31
0.0
  0
LINE
  5
1d0
100
AcDbEntity
  8
Layer_1
 62
5
100
AcDbLine
 10
73.528897
 20
117.286732
 30
0.0
 11
75.681535
 21
116.587298
 31
0.0
  0
LINE
  5
1d1
100
AcDbEntity
  8
Layer_1
 62
5
100
AcDbLine
 10
75.681535
 20
116.587298
 30
0.0
 11
75.331818
 21
115.510979
 31
0.0
  0
LINE
  5
1d2
100
AcDbEntity
  8
Layer_1
 62
5
100
AcDbLine
 10
75.331818
 20
115.510979
 30
0.0
 11
73.179180
 21
116.210413
 31
0.0
  0
SPLINE
  5
1d3
100
AcDbEntity
  8
Layer_1
 62
5
100
AcDbSpline
 70
8
 71
3
 72
8
 73
4
 74
0
 40
0
 40
0
 40
0
 40
0
 40
1
 40
1
 40
1
 40
1
 10
48.973564
 20
124.114642
 30
0.0
 10
49.165830
 20
124.052171
 30
0.0
 10
49.310163
 20
123.891873
 30
0.0
 10
49.352194
 20
123.694130
 30
0.0
  0
SPLINE
  5
1d4
100
AcDbEntity
  8
Layer_1
 62
5
100
AcDbSpline
 70
8
 71
3
 72
8
 73
4
 74
0
 40
0
 40
0
 40
0
 40
0
 40
1
 40
1
 40
1
 40
1
 10
49.352194
 20
123.694130
 30
0.0
 10
49.394226
 20
123.496387
 30
0.0
 10
49.327570
 20
123.291242
 30
0.0
 10
49.177336
 20
123.155970
 30
0.0
  0
SPLINE
  5
1d5
100
AcDbEntity
  8
Layer_1
 62
5
100
AcDbSpline
 70
8
 71
3
 72
8
 73
4
 74
0
 40
0
 40
0
 40
0
 40
0
 40
1
 40
1
 40
1
 40
1
 10
49.177336
 20
123.155970
 30
0.0
 10
49.027101
 20
123.020699
 30
0.0
 10
48.816113
 20
122.975852
 30
0.0
 10
48.623847
 20
123.038323
 30
0.0
  0
SPLINE
  5
1d6
100
AcDbEntity
  8
Layer_1
 62
5
100
AcDbSpline
 70
8
 71
3
 72
8
 73
4
 74
0
 40
0
 40
0
 40
0
 40
0
 40
1
 40
1
 40
1
 40
1
 10
48.623847
 20
123.038323
 30
0.0
 10
48.431581
 20
123.100794
 30
0.0
 10
48.287248
 20
123.261092
 30
0.0
 10
48.245216
 20
123.458834
 30
0.0
  0
SPLINE
  5
1d7
100
AcDbEntity
  8
Layer_1
 62
5
100
AcDbSpline
 70
8
 71
3
 72
8
 73
4
 74
0
 40
0
 40
0
 40
0
 40
0
 40
1
 40
1
 40
1
 40
1
 10
48.245216
 20
123.458834
 30
0.0
 10
48.203185
 20
123.656577
 30
0.0
 10
48.269840
 20
123.861722
 30
0.0
 10
48.420075
 20
123.996994
 30
0.0
  0
SPLINE
  5
1d8
100
AcDbEntity
  8
Layer_1
 62
5
100
AcDbSpline
 70
8
 71
3
 72
8
 73
4
 74
0
 40
0
 40
0
 40
0
 40
0
 40
1
 40
1
 40
1
 40
1
 10
48.420075
 20
123.996994
 30
0.0
 10
48.570309
 20
124.132266
 30
0.0
 10
48.781298
 20
124.177113
 30
0.0
 10
48.973564
 20
124.114642
 30
0.0
  0
LINE
  5
1d9
100
AcDbEntity
  8
Layer_1
 62
5
100
AcDbLine
 10
48.973564
 20
124.114642
 30
0.0
 11
48.973564
 21
124.114642
 31
0.0
  0
SPLINE
  5
1da
100
AcDbEntity
  8
Layer_1
 62
5
100
AcDbSpline
 70
8
 71
3
 72
8
 73
4
 74
0
 40
0
 40
0
 40
0
 40
0
 40
1
 40
1
 40
1
 40
1
 10
49.658008
 20
126.263516
 30
0.0
 10
49.850274
 20
126.201045
 30
0.0
 10
49.994607
 20
126.040747
 30
0.0
 10
50.036638
 20
125.843005
 30
0.0
  0
SPLINE
  5
1db
100
AcDbEntity
  8
Layer_1
 62
5
100
AcDbSpline
 70
8
 71
3
 72
8
 73
4
 74
0
 40
0
 40
0
 40
0
 40
0
 40
1
 40
1
 40
1
 40
1
 10
50.036638
 20
125.843005
 30
0.0
 10
50.078670
 20
125.645262
 30
0.0
 10
50.012014
 20
125.440117
 30
0.0
 10
49.861780
 20
125.304845
 30
0.0
  0
SPLINE
  5
1dc
100
AcDbEntity
  8
Layer_1
 62
5
100
AcDbSpline
 70
8
 71
3
 72
8
 73
4
 74
0
 40
0
 40
0
 40
0
 40
0
 40
1
 40
1
 40
1
 40
1
 10
49.861780
 20
125.304845
 30
0.0
 10
49.711545
 20
125.169573
 30
0.0
 10
49.500557
 20
125.124726
 30
0.0
 10
49.308291
 20
125.187197
 30
0.0
  0
SPLINE
  5
1dd
100
AcDbEntity
  8
Layer_1
 62
5
100
AcDbSpline
 70
8
 71
3
 72
8
 73
4
 74
0
 40
0
 40
0
 40
0
 40
0
 40
1
 40
1
 40
1
 40
1
 10
49.308291
 20
125.187197
 30
0.0
 10
49.116025
 20
125.249668
 30
0.0
 10
48.971692
 20
125.409966
 30
0.0
 10
48.929660
 20
125.607709
 30
0.0
  0
SPLINE
  5
1de
100
AcDbEntity
  8
Layer_1
 62
5
100
AcDbSpline
 70
8
 71
3
 72
8
 73
4
 74
0
 40
0
 40
0
 40
0
 40
0
 40
1
 40
1
 40
1
 40
1
 10
48.929660
 20
125.607709
 30
0.0
 10
48.887629
 20
125.805452
 30
0.0
 10
48.954284
 20
126.010597
 30
0.0
 10
49.104519
 20
126.145869
 30
0.0
  0
SPLINE
  5
1df
100
AcDbEntity
  8
Layer_1
 62
5
100
AcDbSpline
 70
8
 71
3
 72
8
 73
4
 74
0
 40
0
 40
0
 40
0
 40
0
 40
1
 40
1
 40
1
 40
1
 10
49.104519
 20
126.145869
 30
0.0
 10
49.254753
 20
126.281140
 30
0.0
 10
49.465742
 20
126.325987
 30
0.0
 10
49.658008
 20
126.263516
 30
0.0
  0
LINE
  5
1e0
100
AcDbEntity
  8
Layer_1
 62
5
100
AcDbLine
 10
49.658008
 20
126.263516
 30
0.0
 11
49.658008
 21
126.263516
 31
0.0
  0
LINE
  5
1e1
100
AcDbEntity
  8
Layer_1
 62
7
100
AcDbLine
 10
90.656157
 20
155.397490
 30
0.0
 11
81.530602
 21
128.478960
 31
0.0
  0
LINE
  5
1e2
100
AcDbEntity
  8
Layer_1
 62
7
100
AcDbLine
 10
81.530602
 20
128.478960
 30
0.0
 11
53.104144
 21
127.861020
 31
0.0
  0
LINE
  5
1e3
100
AcDbEntity
  8
Layer_1
 62
7
100
AcDbLine
 10
99.199257
 20
155.468490
 30
0.0
 11
108.362540
 21
128.682640
 31
0.0
  0
LINE
  5
1e4
100
AcDbEntity
  8
Layer_1
 62
7
100
AcDbLine
 10
108.362540
 20
128.682640
 30
0.0
 11
136.686690
 21
128.527540
 31
0.0
  0
LINE
  5
1e5
100
AcDbEntity
  8
Layer_1
 62
7
100
AcDbLine
 10
139.394210
 20
120.424520
 30
0.0
 11
116.670460
 21
103.228240
 31
0.0
  0
LINE
  5
1e6
100
AcDbEntity
  8
Layer_1
 62
7
100
AcDbLine
 10
116.670460
 20
103.228240
 30
0.0
 11
125.074310
 21
76.162370
 31
0.0
  0
LINE
  5
1e7
100
AcDbEntity
  8
Layer_1
 62
7
100
AcDbLine
 10
118.204540
 20
71.083400
 30
0.0
 11
94.973096
 21
87.292870
 31
0.0
  0
LINE
  5
1e8
100
AcDbEntity
  8
Layer_1
 62
7
100
AcDbLine
 10
94.973096
 20
87.292870
 30
0.0
 11
71.857930
 21
70.813770
 31
0.0
  0
LINE
  5
1e9
100
AcDbEntity
  8
Layer_1
 62
7
100
AcDbLine
 10
64.904669
 20
75.777820
 30
0.0
 11
73.255470
 21
102.898670
 31
0.0
  0
LINE
  5
1ea
100
AcDbEntity
  8
Layer_1
 62
7
100
AcDbLine
 10
73.255470
 20
102.898670
 30
0.0
 11
50.531730
 21
119.714100
 31
0.0
  0
ENDSEC
  0
SECTION
  2
OBJECTS
  0
DICTIONARY
  5
C
330
0
100
AcDbDictionary
  3
ACAD_GROUP
350
D
  3
ACAD_MLINESTYLE
350
17
  0
DICTIONARY
  5
D
330
C
100
AcDbDictionary
  0
DICTIONARY
  5
1A
330
C
100
AcDbDictionary
  0
DICTIONARY
  5
17
330
C
100
AcDbDictionary
  3
STANDARD
350
18
  0
DICTIONARY
  5
19
330
C
100
AcDbDictionary
  0
ENDSEC
  0
EOF
