ISO-10303-21;
HEADER;
/* Generated by software containing ST-Developer
 * from STEP Tools, Inc. (www.steptools.com) 
 */

FILE_DESCRIPTION(
/* description */ (''),
/* implementation_level */ '2;1');

FILE_NAME(
/* name */ 
'C:\\Users\\jdtag\\OneDrive\\Documents\\Projects\\3D Models\\CNC Machi
ne\\Version 2\\STL Files\\Official STLs\\Y Axis Limit Stop.stp',
/* time_stamp */ '2018-01-29T18:56:32-08:00',
/* author */ ('jdtag'),
/* organization */ (''),
/* preprocessor_version */ 'ST-DEVELOPER v16.13',
/* originating_system */ 'Autodesk Inventor 2018',
/* authorisation */ '');

FILE_SCHEMA (('AUTOMOTIVE_DESIGN { 1 0 10303 214 3 1 1 }'));
ENDSEC;

DATA;
#10=MECHANICAL_DESIGN_GEOMETRIC_PRESENTATION_REPRESENTATION('',(#13),#448);
#11=SHAPE_REPRESENTATION_RELATIONSHIP('SRR','None',#458,#12);
#12=ADVANCED_BREP_SHAPE_REPRESENTATION('',(#14),#447);
#13=STYLED_ITEM('',(#467),#14);
#14=MANIFOLD_SOLID_BREP('Solid1',#265);
#15=FACE_BOUND('',#50,.T.);
#16=FACE_BOUND('',#52,.T.);
#17=FACE_BOUND('',#56,.T.);
#18=PLANE('',#290);
#19=PLANE('',#291);
#20=PLANE('',#292);
#21=PLANE('',#293);
#22=PLANE('',#297);
#23=PLANE('',#298);
#24=PLANE('',#299);
#25=PLANE('',#300);
#26=PLANE('',#301);
#27=PLANE('',#302);
#28=PLANE('',#303);
#29=FACE_OUTER_BOUND('',#43,.T.);
#30=FACE_OUTER_BOUND('',#44,.T.);
#31=FACE_OUTER_BOUND('',#45,.T.);
#32=FACE_OUTER_BOUND('',#46,.T.);
#33=FACE_OUTER_BOUND('',#47,.T.);
#34=FACE_OUTER_BOUND('',#48,.T.);
#35=FACE_OUTER_BOUND('',#49,.T.);
#36=FACE_OUTER_BOUND('',#51,.T.);
#37=FACE_OUTER_BOUND('',#53,.T.);
#38=FACE_OUTER_BOUND('',#54,.T.);
#39=FACE_OUTER_BOUND('',#55,.T.);
#40=FACE_OUTER_BOUND('',#57,.T.);
#41=FACE_OUTER_BOUND('',#58,.T.);
#42=FACE_OUTER_BOUND('',#59,.T.);
#43=EDGE_LOOP('',(#180,#181,#182,#183));
#44=EDGE_LOOP('',(#184,#185,#186,#187));
#45=EDGE_LOOP('',(#188,#189,#190,#191,#192,#193));
#46=EDGE_LOOP('',(#194,#195,#196,#197));
#47=EDGE_LOOP('',(#198,#199,#200,#201));
#48=EDGE_LOOP('',(#202,#203,#204,#205));
#49=EDGE_LOOP('',(#206));
#50=EDGE_LOOP('',(#207));
#51=EDGE_LOOP('',(#208,#209,#210,#211));
#52=EDGE_LOOP('',(#212));
#53=EDGE_LOOP('',(#213,#214,#215,#216));
#54=EDGE_LOOP('',(#217,#218,#219,#220,#221,#222,#223));
#55=EDGE_LOOP('',(#224,#225,#226,#227));
#56=EDGE_LOOP('',(#228));
#57=EDGE_LOOP('',(#229,#230,#231,#232));
#58=EDGE_LOOP('',(#233,#234,#235,#236,#237,#238,#239,#240,#241));
#59=EDGE_LOOP('',(#242,#243,#244,#245,#246,#247));
#60=ELLIPSE('',#287,0.353553390593274,0.25);
#61=CIRCLE('',#286,0.25);
#62=CIRCLE('',#289,0.25);
#63=CIRCLE('',#295,0.13);
#64=CIRCLE('',#296,0.13);
#65=LINE('',#377,#94);
#66=LINE('',#381,#95);
#67=LINE('',#385,#96);
#68=LINE('',#388,#97);
#69=LINE('',#391,#98);
#70=LINE('',#393,#99);
#71=LINE('',#395,#100);
#72=LINE('',#396,#101);
#73=LINE('',#400,#102);
#74=LINE('',#402,#103);
#75=LINE('',#404,#104);
#76=LINE('',#405,#105);
#77=LINE('',#407,#106);
#78=LINE('',#408,#107);
#79=LINE('',#410,#108);
#80=LINE('',#419,#109);
#81=LINE('',#421,#110);
#82=LINE('',#423,#111);
#83=LINE('',#424,#112);
#84=LINE('',#427,#113);
#85=LINE('',#429,#114);
#86=LINE('',#430,#115);
#87=LINE('',#432,#116);
#88=LINE('',#433,#117);
#89=LINE('',#436,#118);
#90=LINE('',#438,#119);
#91=LINE('',#439,#120);
#92=LINE('',#441,#121);
#93=LINE('',#442,#122);
#94=VECTOR('',#308,0.393700787401575);
#95=VECTOR('',#311,0.393700787401575);
#96=VECTOR('',#316,0.393700787401575);
#97=VECTOR('',#319,0.393700787401575);
#98=VECTOR('',#322,0.393700787401575);
#99=VECTOR('',#323,0.393700787401575);
#100=VECTOR('',#324,0.393700787401575);
#101=VECTOR('',#325,0.393700787401575);
#102=VECTOR('',#328,0.393700787401575);
#103=VECTOR('',#329,0.393700787401575);
#104=VECTOR('',#330,0.393700787401575);
#105=VECTOR('',#331,0.393700787401575);
#106=VECTOR('',#334,0.393700787401575);
#107=VECTOR('',#335,0.393700787401575);
#108=VECTOR('',#338,0.393700787401575);
#109=VECTOR('',#347,0.393700787401575);
#110=VECTOR('',#348,0.393700787401575);
#111=VECTOR('',#349,0.393700787401575);
#112=VECTOR('',#350,0.393700787401575);
#113=VECTOR('',#353,0.393700787401575);
#114=VECTOR('',#354,0.393700787401575);
#115=VECTOR('',#355,0.393700787401575);
#116=VECTOR('',#358,0.393700787401575);
#117=VECTOR('',#359,0.393700787401575);
#118=VECTOR('',#362,0.393700787401575);
#119=VECTOR('',#363,0.393700787401575);
#120=VECTOR('',#364,0.393700787401575);
#121=VECTOR('',#367,0.393700787401575);
#122=VECTOR('',#368,0.393700787401575);
#123=VERTEX_POINT('',#375);
#124=VERTEX_POINT('',#376);
#125=VERTEX_POINT('',#378);
#126=VERTEX_POINT('',#380);
#127=VERTEX_POINT('',#384);
#128=VERTEX_POINT('',#386);
#129=VERTEX_POINT('',#390);
#130=VERTEX_POINT('',#392);
#131=VERTEX_POINT('',#394);
#132=VERTEX_POINT('',#398);
#133=VERTEX_POINT('',#399);
#134=VERTEX_POINT('',#401);
#135=VERTEX_POINT('',#403);
#136=VERTEX_POINT('',#412);
#137=VERTEX_POINT('',#414);
#138=VERTEX_POINT('',#417);
#139=VERTEX_POINT('',#418);
#140=VERTEX_POINT('',#420);
#141=VERTEX_POINT('',#422);
#142=VERTEX_POINT('',#426);
#143=VERTEX_POINT('',#428);
#144=VERTEX_POINT('',#435);
#145=VERTEX_POINT('',#437);
#146=EDGE_CURVE('',#123,#124,#65,.T.);
#147=EDGE_CURVE('',#124,#125,#61,.T.);
#148=EDGE_CURVE('',#125,#126,#66,.T.);
#149=EDGE_CURVE('',#126,#123,#60,.T.);
#150=EDGE_CURVE('',#126,#127,#67,.T.);
#151=EDGE_CURVE('',#127,#128,#62,.T.);
#152=EDGE_CURVE('',#128,#123,#68,.T.);
#153=EDGE_CURVE('',#128,#129,#69,.T.);
#154=EDGE_CURVE('',#130,#129,#70,.T.);
#155=EDGE_CURVE('',#131,#130,#71,.T.);
#156=EDGE_CURVE('',#124,#131,#72,.T.);
#157=EDGE_CURVE('',#132,#133,#73,.T.);
#158=EDGE_CURVE('',#132,#134,#74,.T.);
#159=EDGE_CURVE('',#135,#134,#75,.T.);
#160=EDGE_CURVE('',#133,#135,#76,.T.);
#161=EDGE_CURVE('',#133,#125,#77,.T.);
#162=EDGE_CURVE('',#126,#135,#78,.T.);
#163=EDGE_CURVE('',#134,#127,#79,.T.);
#164=EDGE_CURVE('',#136,#136,#63,.T.);
#165=EDGE_CURVE('',#137,#137,#64,.T.);
#166=EDGE_CURVE('',#138,#139,#80,.T.);
#167=EDGE_CURVE('',#138,#140,#81,.T.);
#168=EDGE_CURVE('',#141,#140,#82,.T.);
#169=EDGE_CURVE('',#139,#141,#83,.T.);
#170=EDGE_CURVE('',#139,#142,#84,.T.);
#171=EDGE_CURVE('',#143,#141,#85,.T.);
#172=EDGE_CURVE('',#142,#143,#86,.T.);
#173=EDGE_CURVE('',#142,#132,#87,.T.);
#174=EDGE_CURVE('',#129,#143,#88,.T.);
#175=EDGE_CURVE('',#131,#144,#89,.T.);
#176=EDGE_CURVE('',#145,#130,#90,.T.);
#177=EDGE_CURVE('',#144,#145,#91,.T.);
#178=EDGE_CURVE('',#144,#138,#92,.T.);
#179=EDGE_CURVE('',#140,#145,#93,.T.);
#180=ORIENTED_EDGE('',*,*,#146,.T.);
#181=ORIENTED_EDGE('',*,*,#147,.T.);
#182=ORIENTED_EDGE('',*,*,#148,.T.);
#183=ORIENTED_EDGE('',*,*,#149,.T.);
#184=ORIENTED_EDGE('',*,*,#150,.T.);
#185=ORIENTED_EDGE('',*,*,#151,.T.);
#186=ORIENTED_EDGE('',*,*,#152,.T.);
#187=ORIENTED_EDGE('',*,*,#149,.F.);
#188=ORIENTED_EDGE('',*,*,#146,.F.);
#189=ORIENTED_EDGE('',*,*,#152,.F.);
#190=ORIENTED_EDGE('',*,*,#153,.T.);
#191=ORIENTED_EDGE('',*,*,#154,.F.);
#192=ORIENTED_EDGE('',*,*,#155,.F.);
#193=ORIENTED_EDGE('',*,*,#156,.F.);
#194=ORIENTED_EDGE('',*,*,#157,.F.);
#195=ORIENTED_EDGE('',*,*,#158,.T.);
#196=ORIENTED_EDGE('',*,*,#159,.F.);
#197=ORIENTED_EDGE('',*,*,#160,.F.);
#198=ORIENTED_EDGE('',*,*,#148,.F.);
#199=ORIENTED_EDGE('',*,*,#161,.F.);
#200=ORIENTED_EDGE('',*,*,#160,.T.);
#201=ORIENTED_EDGE('',*,*,#162,.F.);
#202=ORIENTED_EDGE('',*,*,#150,.F.);
#203=ORIENTED_EDGE('',*,*,#162,.T.);
#204=ORIENTED_EDGE('',*,*,#159,.T.);
#205=ORIENTED_EDGE('',*,*,#163,.T.);
#206=ORIENTED_EDGE('',*,*,#164,.F.);
#207=ORIENTED_EDGE('',*,*,#165,.F.);
#208=ORIENTED_EDGE('',*,*,#166,.F.);
#209=ORIENTED_EDGE('',*,*,#167,.T.);
#210=ORIENTED_EDGE('',*,*,#168,.F.);
#211=ORIENTED_EDGE('',*,*,#169,.F.);
#212=ORIENTED_EDGE('',*,*,#164,.T.);
#213=ORIENTED_EDGE('',*,*,#170,.F.);
#214=ORIENTED_EDGE('',*,*,#169,.T.);
#215=ORIENTED_EDGE('',*,*,#171,.F.);
#216=ORIENTED_EDGE('',*,*,#172,.F.);
#217=ORIENTED_EDGE('',*,*,#173,.F.);
#218=ORIENTED_EDGE('',*,*,#172,.T.);
#219=ORIENTED_EDGE('',*,*,#174,.F.);
#220=ORIENTED_EDGE('',*,*,#153,.F.);
#221=ORIENTED_EDGE('',*,*,#151,.F.);
#222=ORIENTED_EDGE('',*,*,#163,.F.);
#223=ORIENTED_EDGE('',*,*,#158,.F.);
#224=ORIENTED_EDGE('',*,*,#175,.F.);
#225=ORIENTED_EDGE('',*,*,#155,.T.);
#226=ORIENTED_EDGE('',*,*,#176,.F.);
#227=ORIENTED_EDGE('',*,*,#177,.F.);
#228=ORIENTED_EDGE('',*,*,#165,.T.);
#229=ORIENTED_EDGE('',*,*,#178,.F.);
#230=ORIENTED_EDGE('',*,*,#177,.T.);
#231=ORIENTED_EDGE('',*,*,#179,.F.);
#232=ORIENTED_EDGE('',*,*,#167,.F.);
#233=ORIENTED_EDGE('',*,*,#178,.T.);
#234=ORIENTED_EDGE('',*,*,#166,.T.);
#235=ORIENTED_EDGE('',*,*,#170,.T.);
#236=ORIENTED_EDGE('',*,*,#173,.T.);
#237=ORIENTED_EDGE('',*,*,#157,.T.);
#238=ORIENTED_EDGE('',*,*,#161,.T.);
#239=ORIENTED_EDGE('',*,*,#147,.F.);
#240=ORIENTED_EDGE('',*,*,#156,.T.);
#241=ORIENTED_EDGE('',*,*,#175,.T.);
#242=ORIENTED_EDGE('',*,*,#179,.T.);
#243=ORIENTED_EDGE('',*,*,#176,.T.);
#244=ORIENTED_EDGE('',*,*,#154,.T.);
#245=ORIENTED_EDGE('',*,*,#174,.T.);
#246=ORIENTED_EDGE('',*,*,#171,.T.);
#247=ORIENTED_EDGE('',*,*,#168,.T.);
#248=CYLINDRICAL_SURFACE('',#285,0.25);
#249=CYLINDRICAL_SURFACE('',#288,0.25);
#250=CYLINDRICAL_SURFACE('',#294,0.13);
#251=ADVANCED_FACE('',(#29),#248,.F.);
#252=ADVANCED_FACE('',(#30),#249,.F.);
#253=ADVANCED_FACE('',(#31),#18,.T.);
#254=ADVANCED_FACE('',(#32),#19,.T.);
#255=ADVANCED_FACE('',(#33),#20,.T.);
#256=ADVANCED_FACE('',(#34),#21,.T.);
#257=ADVANCED_FACE('',(#35,#15),#250,.F.);
#258=ADVANCED_FACE('',(#36,#16),#22,.T.);
#259=ADVANCED_FACE('',(#37),#23,.T.);
#260=ADVANCED_FACE('',(#38),#24,.T.);
#261=ADVANCED_FACE('',(#39,#17),#25,.T.);
#262=ADVANCED_FACE('',(#40),#26,.T.);
#263=ADVANCED_FACE('',(#41),#27,.F.);
#264=ADVANCED_FACE('',(#42),#28,.T.);
#265=CLOSED_SHELL('',(#251,#252,#253,#254,#255,#256,#257,#258,#259,#260,
#261,#262,#263,#264));
#266=DERIVED_UNIT_ELEMENT(#268,0.);
#267=DERIVED_UNIT_ELEMENT(#452,0.);
#268=(
MASS_UNIT()
NAMED_UNIT(*)
SI_UNIT($,.GRAM.)
);
#269=DERIVED_UNIT((#266,#267));
#270=MEASURE_REPRESENTATION_ITEM('density measure',
POSITIVE_RATIO_MEASURE(1.),#269);
#271=PROPERTY_DEFINITION_REPRESENTATION(#276,#273);
#272=PROPERTY_DEFINITION_REPRESENTATION(#277,#274);
#273=REPRESENTATION('material name',(#275),#447);
#274=REPRESENTATION('density',(#270),#447);
#275=DESCRIPTIVE_REPRESENTATION_ITEM('Generic','Generic');
#276=PROPERTY_DEFINITION('material property','material name',#460);
#277=PROPERTY_DEFINITION('material property','density of part',#460);
#278=DATE_TIME_ROLE('creation_date');
#279=APPLIED_DATE_AND_TIME_ASSIGNMENT(#280,#278,(#460));
#280=DATE_AND_TIME(#281,#282);
#281=CALENDAR_DATE(2018,24,1);
#282=LOCAL_TIME(1,21,34.,#283);
#283=COORDINATED_UNIVERSAL_TIME_OFFSET(0,0,.BEHIND.);
#284=AXIS2_PLACEMENT_3D('placement',#373,#304,#305);
#285=AXIS2_PLACEMENT_3D('',#374,#306,#307);
#286=AXIS2_PLACEMENT_3D('',#379,#309,#310);
#287=AXIS2_PLACEMENT_3D('',#382,#312,#313);
#288=AXIS2_PLACEMENT_3D('',#383,#314,#315);
#289=AXIS2_PLACEMENT_3D('',#387,#317,#318);
#290=AXIS2_PLACEMENT_3D('',#389,#320,#321);
#291=AXIS2_PLACEMENT_3D('',#397,#326,#327);
#292=AXIS2_PLACEMENT_3D('',#406,#332,#333);
#293=AXIS2_PLACEMENT_3D('',#409,#336,#337);
#294=AXIS2_PLACEMENT_3D('',#411,#339,#340);
#295=AXIS2_PLACEMENT_3D('',#413,#341,#342);
#296=AXIS2_PLACEMENT_3D('',#415,#343,#344);
#297=AXIS2_PLACEMENT_3D('',#416,#345,#346);
#298=AXIS2_PLACEMENT_3D('',#425,#351,#352);
#299=AXIS2_PLACEMENT_3D('',#431,#356,#357);
#300=AXIS2_PLACEMENT_3D('',#434,#360,#361);
#301=AXIS2_PLACEMENT_3D('',#440,#365,#366);
#302=AXIS2_PLACEMENT_3D('',#443,#369,#370);
#303=AXIS2_PLACEMENT_3D('',#444,#371,#372);
#304=DIRECTION('axis',(0.,0.,1.));
#305=DIRECTION('refdir',(1.,0.,0.));
#306=DIRECTION('center_axis',(1.,0.,0.));
#307=DIRECTION('ref_axis',(0.,-0.707106781186547,-0.707106781186548));
#308=DIRECTION('',(-1.,0.,0.));
#309=DIRECTION('center_axis',(-1.,0.,0.));
#310=DIRECTION('ref_axis',(0.,-0.707106781186547,-0.707106781186548));
#311=DIRECTION('',(1.,0.,0.));
#312=DIRECTION('center_axis',(0.707106781186547,-0.707106781186548,0.));
#313=DIRECTION('ref_axis',(-0.707106781186548,-0.707106781186547,0.));
#314=DIRECTION('center_axis',(0.,-1.,0.));
#315=DIRECTION('ref_axis',(-0.707106781186548,0.,-0.707106781186547));
#316=DIRECTION('',(0.,-1.,0.));
#317=DIRECTION('center_axis',(0.,-1.,0.));
#318=DIRECTION('ref_axis',(-0.707106781186548,0.,-0.707106781186547));
#319=DIRECTION('',(0.,1.,0.));
#320=DIRECTION('center_axis',(0.,0.,1.));
#321=DIRECTION('ref_axis',(0.,-1.,0.));
#322=DIRECTION('',(1.,0.,0.));
#323=DIRECTION('',(0.,-1.,0.));
#324=DIRECTION('',(1.,0.,0.));
#325=DIRECTION('',(0.,1.,0.));
#326=DIRECTION('center_axis',(0.,6.99353086378051E-16,1.));
#327=DIRECTION('ref_axis',(0.,-1.,6.99353086378051E-16));
#328=DIRECTION('',(0.,1.,-6.99353086378051E-16));
#329=DIRECTION('',(1.,0.,0.));
#330=DIRECTION('',(0.,-1.,6.99353086378051E-16));
#331=DIRECTION('',(1.,0.,0.));
#332=DIRECTION('center_axis',(0.,1.,1.3987061727561E-15));
#333=DIRECTION('ref_axis',(0.,-1.3987061727561E-15,1.));
#334=DIRECTION('',(0.,1.3987061727561E-15,-1.));
#335=DIRECTION('',(0.,-1.3987061727561E-15,1.));
#336=DIRECTION('center_axis',(1.,0.,0.));
#337=DIRECTION('ref_axis',(0.,0.,-1.));
#338=DIRECTION('',(0.,1.3987061727561E-15,-1.));
#339=DIRECTION('center_axis',(0.,-1.,0.));
#340=DIRECTION('ref_axis',(-1.,0.,0.));
#341=DIRECTION('center_axis',(0.,1.,0.));
#342=DIRECTION('ref_axis',(-1.,0.,0.));
#343=DIRECTION('center_axis',(0.,-1.,0.));
#344=DIRECTION('ref_axis',(-1.,0.,0.));
#345=DIRECTION('center_axis',(0.,-1.,0.));
#346=DIRECTION('ref_axis',(0.,0.,-1.));
#347=DIRECTION('',(0.,0.,1.));
#348=DIRECTION('',(1.,0.,0.));
#349=DIRECTION('',(0.,0.,-1.));
#350=DIRECTION('',(1.,0.,0.));
#351=DIRECTION('center_axis',(0.,0.,-1.));
#352=DIRECTION('ref_axis',(0.,1.,0.));
#353=DIRECTION('',(0.,-1.,0.));
#354=DIRECTION('',(0.,1.,0.));
#355=DIRECTION('',(1.,0.,0.));
#356=DIRECTION('center_axis',(0.,-1.,0.));
#357=DIRECTION('ref_axis',(0.,0.,-1.));
#358=DIRECTION('',(0.,0.,1.));
#359=DIRECTION('',(0.,0.,-1.));
#360=DIRECTION('center_axis',(0.,1.,0.));
#361=DIRECTION('ref_axis',(0.,0.,1.));
#362=DIRECTION('',(0.,0.,-1.));
#363=DIRECTION('',(0.,0.,1.));
#364=DIRECTION('',(1.,0.,0.));
#365=DIRECTION('center_axis',(0.,0.,-1.));
#366=DIRECTION('ref_axis',(0.,1.,0.));
#367=DIRECTION('',(0.,-1.,0.));
#368=DIRECTION('',(0.,1.,0.));
#369=DIRECTION('center_axis',(1.,0.,0.));
#370=DIRECTION('ref_axis',(0.,0.,-1.));
#371=DIRECTION('center_axis',(1.,0.,0.));
#372=DIRECTION('ref_axis',(0.,0.,-1.));
#373=CARTESIAN_POINT('',(0.,0.,0.));
#374=CARTESIAN_POINT('Origin',(0.,-0.875,1.375));
#375=CARTESIAN_POINT('',(0.375,-0.875,1.125));
#376=CARTESIAN_POINT('',(0.,-0.875,1.125));
#377=CARTESIAN_POINT('',(0.,-0.875,1.125));
#378=CARTESIAN_POINT('',(0.,-1.125,1.375));
#379=CARTESIAN_POINT('Origin',(0.,-0.875,1.375));
#380=CARTESIAN_POINT('',(0.125,-1.125,1.375));
#381=CARTESIAN_POINT('',(0.,-1.125,1.375));
#382=CARTESIAN_POINT('Origin',(0.375,-0.875,1.375));
#383=CARTESIAN_POINT('Origin',(0.375,-0.8125,1.375));
#384=CARTESIAN_POINT('',(0.125,-2.125,1.375));
#385=CARTESIAN_POINT('',(0.125,-0.8125,1.375));
#386=CARTESIAN_POINT('',(0.375,-2.125,1.125));
#387=CARTESIAN_POINT('Origin',(0.375,-2.125,1.375));
#388=CARTESIAN_POINT('',(0.375,-0.8125,1.125));
#389=CARTESIAN_POINT('Origin',(0.,0.,1.125));
#390=CARTESIAN_POINT('',(1.,-2.125,1.125));
#391=CARTESIAN_POINT('',(0.,-2.125,1.125));
#392=CARTESIAN_POINT('',(1.,0.,1.125));
#393=CARTESIAN_POINT('',(1.,-0.125,1.125));
#394=CARTESIAN_POINT('',(0.,0.,1.125));
#395=CARTESIAN_POINT('',(0.,0.,1.125));
#396=CARTESIAN_POINT('',(0.,-2.125,1.125));
#397=CARTESIAN_POINT('Origin',(0.,-1.125,1.625));
#398=CARTESIAN_POINT('',(0.,-2.125,1.625));
#399=CARTESIAN_POINT('',(0.,-1.125,1.625));
#400=CARTESIAN_POINT('',(0.,-2.125,1.625));
#401=CARTESIAN_POINT('',(0.125,-2.125,1.625));
#402=CARTESIAN_POINT('',(0.,-2.125,1.625));
#403=CARTESIAN_POINT('',(0.125,-1.125,1.625));
#404=CARTESIAN_POINT('',(0.125,-2.125,1.625));
#405=CARTESIAN_POINT('',(0.,-1.125,1.625));
#406=CARTESIAN_POINT('Origin',(0.,-1.125,1.125));
#407=CARTESIAN_POINT('',(0.,-1.125,1.625));
#408=CARTESIAN_POINT('',(0.125,-1.125,1.625));
#409=CARTESIAN_POINT('Origin',(0.125,-1.625,1.375));
#410=CARTESIAN_POINT('',(0.125,-2.125,1.125));
#411=CARTESIAN_POINT('Origin',(0.5,0.,0.5));
#412=CARTESIAN_POINT('',(0.63,-0.125,0.5));
#413=CARTESIAN_POINT('Origin',(0.5,-0.125,0.5));
#414=CARTESIAN_POINT('',(0.63,0.,0.5));
#415=CARTESIAN_POINT('Origin',(0.5,0.,0.5));
#416=CARTESIAN_POINT('Origin',(0.,-0.125,1.));
#417=CARTESIAN_POINT('',(0.,-0.125,0.));
#418=CARTESIAN_POINT('',(0.,-0.125,1.));
#419=CARTESIAN_POINT('',(0.,-0.125,0.));
#420=CARTESIAN_POINT('',(1.,-0.125,0.));
#421=CARTESIAN_POINT('',(0.,-0.125,0.));
#422=CARTESIAN_POINT('',(1.,-0.125,1.));
#423=CARTESIAN_POINT('',(1.,-0.125,0.));
#424=CARTESIAN_POINT('',(0.,-0.125,1.));
#425=CARTESIAN_POINT('Origin',(0.,-2.125,1.));
#426=CARTESIAN_POINT('',(0.,-2.125,1.));
#427=CARTESIAN_POINT('',(0.,-0.125,1.));
#428=CARTESIAN_POINT('',(1.,-2.125,1.));
#429=CARTESIAN_POINT('',(1.,-0.125,1.));
#430=CARTESIAN_POINT('',(0.,-2.125,1.));
#431=CARTESIAN_POINT('Origin',(0.,-2.125,1.125));
#432=CARTESIAN_POINT('',(0.,-2.125,1.));
#433=CARTESIAN_POINT('',(1.,-2.125,1.));
#434=CARTESIAN_POINT('Origin',(0.,0.,0.));
#435=CARTESIAN_POINT('',(0.,0.,0.));
#436=CARTESIAN_POINT('',(0.,0.,1.125));
#437=CARTESIAN_POINT('',(1.,0.,0.));
#438=CARTESIAN_POINT('',(1.,0.,1.125));
#439=CARTESIAN_POINT('',(0.,0.,0.));
#440=CARTESIAN_POINT('Origin',(0.,-0.125,0.));
#441=CARTESIAN_POINT('',(0.,0.,0.));
#442=CARTESIAN_POINT('',(1.,0.,0.));
#443=CARTESIAN_POINT('Origin',(0.,-0.754807692307692,0.870192307692308));
#444=CARTESIAN_POINT('Origin',(1.,-0.754807692307692,0.870192307692308));
#445=UNCERTAINTY_MEASURE_WITH_UNIT(LENGTH_MEASURE(0.000393700787401575),
#450,'DISTANCE_ACCURACY_VALUE',
'Maximum model space distance between geometric entities at asserted c
onnectivities');
#446=UNCERTAINTY_MEASURE_WITH_UNIT(LENGTH_MEASURE(0.000393700787401575),
#450,'DISTANCE_ACCURACY_VALUE',
'Maximum model space distance between geometric entities at asserted c
onnectivities');
#447=(
GEOMETRIC_REPRESENTATION_CONTEXT(3)
GLOBAL_UNCERTAINTY_ASSIGNED_CONTEXT((#445))
GLOBAL_UNIT_ASSIGNED_CONTEXT((#450,#455,#454))
REPRESENTATION_CONTEXT('','3D')
);
#448=(
GEOMETRIC_REPRESENTATION_CONTEXT(3)
GLOBAL_UNCERTAINTY_ASSIGNED_CONTEXT((#446))
GLOBAL_UNIT_ASSIGNED_CONTEXT((#450,#455,#454))
REPRESENTATION_CONTEXT('','3D')
);
#449=DIMENSIONAL_EXPONENTS(1.,0.,0.,0.,0.,0.,0.);
#450=(
CONVERSION_BASED_UNIT('inch',#453)
LENGTH_UNIT()
NAMED_UNIT(#449)
);
#451=(
LENGTH_UNIT()
NAMED_UNIT(*)
SI_UNIT(.MILLI.,.METRE.)
);
#452=(
LENGTH_UNIT()
NAMED_UNIT(*)
SI_UNIT(.CENTI.,.METRE.)
);
#453=LENGTH_MEASURE_WITH_UNIT(LENGTH_MEASURE(25.4),#451);
#454=(
NAMED_UNIT(*)
SI_UNIT($,.STERADIAN.)
SOLID_ANGLE_UNIT()
);
#455=(
NAMED_UNIT(*)
PLANE_ANGLE_UNIT()
SI_UNIT($,.RADIAN.)
);
#456=SHAPE_DEFINITION_REPRESENTATION(#457,#458);
#457=PRODUCT_DEFINITION_SHAPE('',$,#460);
#458=SHAPE_REPRESENTATION('',(#284),#447);
#459=PRODUCT_DEFINITION_CONTEXT('part definition',#464,'design');
#460=PRODUCT_DEFINITION('Y Axis Limit Stop','Y Axis Limit Stop',#461,#459);
#461=PRODUCT_DEFINITION_FORMATION('',$,#466);
#462=PRODUCT_RELATED_PRODUCT_CATEGORY('Y Axis Limit Stop',
'Y Axis Limit Stop',(#466));
#463=APPLICATION_PROTOCOL_DEFINITION('international standard',
'automotive_design',2009,#464);
#464=APPLICATION_CONTEXT(
'Core Data for Automotive Mechanical Design Process');
#465=PRODUCT_CONTEXT('part definition',#464,'mechanical');
#466=PRODUCT('Y Axis Limit Stop','Y Axis Limit Stop',$,(#465));
#467=PRESENTATION_STYLE_ASSIGNMENT((#468));
#468=SURFACE_STYLE_USAGE(.BOTH.,#469);
#469=SURFACE_SIDE_STYLE('',(#470));
#470=SURFACE_STYLE_FILL_AREA(#471);
#471=FILL_AREA_STYLE('',(#472));
#472=FILL_AREA_STYLE_COLOUR('',#473);
#473=COLOUR_RGB('',0.749019607843137,0.749019607843137,0.749019607843137);
ENDSEC;
END-ISO-10303-21;
