ISO-10303-21;
HEADER;
/* Generated by software containing ST-Developer
 * from STEP Tools, Inc. (www.steptools.com) 
 */

FILE_DESCRIPTION(
/* description */ (''),
/* implementation_level */ '2;1');

FILE_NAME(
/* name */ 
'Z:\\_Europa Customers\\_Europa\\Anthony\\Press Brake Tooling\\America
n\\Punches\\STPs\\Wide 125R.stp',
/* time_stamp */ '2019-10-05T16:47:45-04:00',
/* author */ ('Angus'),
/* organization */ (''),
/* preprocessor_version */ 'ST-DEVELOPER v17',
/* originating_system */ 'Autodesk Inventor 2019',
/* authorisation */ '');

FILE_SCHEMA (('AUTOMOTIVE_DESIGN { 1 0 10303 214 3 1 1 }'));
ENDSEC;

DATA;
#10=MECHANICAL_DESIGN_GEOMETRIC_PRESENTATION_REPRESENTATION('',(#13),#463);
#11=SHAPE_REPRESENTATION_RELATIONSHIP('SRR','None',#473,#12);
#12=ADVANCED_BREP_SHAPE_REPRESENTATION('',(#14),#462);
#13=STYLED_ITEM('',(#482),#14);
#14=MANIFOLD_SOLID_BREP('Solid1',#265);
#15=PLANE('',#288);
#16=PLANE('',#289);
#17=PLANE('',#294);
#18=PLANE('',#300);
#19=PLANE('',#303);
#20=PLANE('',#305);
#21=PLANE('',#306);
#22=PLANE('',#307);
#23=PLANE('',#308);
#24=FACE_OUTER_BOUND('',#38,.T.);
#25=FACE_OUTER_BOUND('',#39,.T.);
#26=FACE_OUTER_BOUND('',#40,.T.);
#27=FACE_OUTER_BOUND('',#41,.T.);
#28=FACE_OUTER_BOUND('',#42,.T.);
#29=FACE_OUTER_BOUND('',#43,.T.);
#30=FACE_OUTER_BOUND('',#44,.T.);
#31=FACE_OUTER_BOUND('',#45,.T.);
#32=FACE_OUTER_BOUND('',#46,.T.);
#33=FACE_OUTER_BOUND('',#47,.T.);
#34=FACE_OUTER_BOUND('',#48,.T.);
#35=FACE_OUTER_BOUND('',#49,.T.);
#36=FACE_OUTER_BOUND('',#50,.T.);
#37=FACE_OUTER_BOUND('',#51,.T.);
#38=EDGE_LOOP('',(#174,#175,#176,#177));
#39=EDGE_LOOP('',(#178,#179,#180,#181));
#40=EDGE_LOOP('',(#182,#183,#184,#185,#186,#187,#188,#189,#190,#191,#192,
#193));
#41=EDGE_LOOP('',(#194,#195,#196,#197,#198,#199,#200,#201,#202,#203,#204,
#205));
#42=EDGE_LOOP('',(#206,#207,#208,#209));
#43=EDGE_LOOP('',(#210,#211,#212,#213));
#44=EDGE_LOOP('',(#214,#215,#216,#217));
#45=EDGE_LOOP('',(#218,#219,#220,#221));
#46=EDGE_LOOP('',(#222,#223,#224,#225));
#47=EDGE_LOOP('',(#226,#227,#228,#229));
#48=EDGE_LOOP('',(#230,#231,#232,#233));
#49=EDGE_LOOP('',(#234,#235,#236,#237));
#50=EDGE_LOOP('',(#238,#239,#240,#241));
#51=EDGE_LOOP('',(#242,#243,#244,#245));
#52=LINE('',#391,#78);
#53=LINE('',#394,#79);
#54=LINE('',#397,#80);
#55=LINE('',#399,#81);
#56=LINE('',#400,#82);
#57=LINE('',#403,#83);
#58=LINE('',#405,#84);
#59=LINE('',#409,#85);
#60=LINE('',#413,#86);
#61=LINE('',#415,#87);
#62=LINE('',#419,#88);
#63=LINE('',#425,#89);
#64=LINE('',#429,#90);
#65=LINE('',#431,#91);
#66=LINE('',#435,#92);
#67=LINE('',#439,#93);
#68=LINE('',#440,#94);
#69=LINE('',#442,#95);
#70=LINE('',#443,#96);
#71=LINE('',#445,#97);
#72=LINE('',#448,#98);
#73=LINE('',#449,#99);
#74=LINE('',#451,#100);
#75=LINE('',#453,#101);
#76=LINE('',#455,#102);
#77=LINE('',#458,#103);
#78=VECTOR('',#315,0.4375);
#79=VECTOR('',#318,0.4375);
#80=VECTOR('',#321,0.393700787401575);
#81=VECTOR('',#322,0.393700787401575);
#82=VECTOR('',#323,0.393700787401575);
#83=VECTOR('',#326,0.393700787401575);
#84=VECTOR('',#327,0.393700787401575);
#85=VECTOR('',#330,0.393700787401575);
#86=VECTOR('',#333,0.393700787401575);
#87=VECTOR('',#334,0.393700787401575);
#88=VECTOR('',#337,0.393700787401575);
#89=VECTOR('',#344,0.393700787401575);
#90=VECTOR('',#347,0.393700787401575);
#91=VECTOR('',#348,0.393700787401575);
#92=VECTOR('',#351,0.393700787401575);
#93=VECTOR('',#354,0.393700787401575);
#94=VECTOR('',#355,0.393700787401575);
#95=VECTOR('',#358,0.4375);
#96=VECTOR('',#359,0.4375);
#97=VECTOR('',#362,0.393700787401575);
#98=VECTOR('',#367,0.393700787401575);
#99=VECTOR('',#368,0.393700787401575);
#100=VECTOR('',#371,0.393700787401575);
#101=VECTOR('',#374,0.393700787401575);
#102=VECTOR('',#377,0.393700787401575);
#103=VECTOR('',#382,0.393700787401575);
#104=CIRCLE('',#286,0.4375);
#105=CIRCLE('',#287,0.4375);
#106=CIRCLE('',#290,0.06);
#107=CIRCLE('',#291,0.06);
#108=CIRCLE('',#292,0.4375);
#109=CIRCLE('',#293,0.125);
#110=CIRCLE('',#295,0.125);
#111=CIRCLE('',#296,0.4375);
#112=CIRCLE('',#297,0.06);
#113=CIRCLE('',#298,0.06);
#114=VERTEX_POINT('',#387);
#115=VERTEX_POINT('',#388);
#116=VERTEX_POINT('',#390);
#117=VERTEX_POINT('',#392);
#118=VERTEX_POINT('',#396);
#119=VERTEX_POINT('',#398);
#120=VERTEX_POINT('',#402);
#121=VERTEX_POINT('',#404);
#122=VERTEX_POINT('',#406);
#123=VERTEX_POINT('',#408);
#124=VERTEX_POINT('',#410);
#125=VERTEX_POINT('',#412);
#126=VERTEX_POINT('',#414);
#127=VERTEX_POINT('',#416);
#128=VERTEX_POINT('',#418);
#129=VERTEX_POINT('',#422);
#130=VERTEX_POINT('',#424);
#131=VERTEX_POINT('',#426);
#132=VERTEX_POINT('',#428);
#133=VERTEX_POINT('',#430);
#134=VERTEX_POINT('',#432);
#135=VERTEX_POINT('',#434);
#136=VERTEX_POINT('',#436);
#137=VERTEX_POINT('',#438);
#138=EDGE_CURVE('',#114,#115,#104,.T.);
#139=EDGE_CURVE('',#115,#116,#52,.T.);
#140=EDGE_CURVE('',#116,#117,#105,.T.);
#141=EDGE_CURVE('',#117,#114,#53,.T.);
#142=EDGE_CURVE('',#117,#118,#54,.T.);
#143=EDGE_CURVE('',#119,#118,#55,.T.);
#144=EDGE_CURVE('',#114,#119,#56,.T.);
#145=EDGE_CURVE('',#120,#116,#57,.T.);
#146=EDGE_CURVE('',#121,#120,#58,.T.);
#147=EDGE_CURVE('',#122,#121,#106,.T.);
#148=EDGE_CURVE('',#123,#122,#59,.T.);
#149=EDGE_CURVE('',#124,#123,#107,.T.);
#150=EDGE_CURVE('',#125,#124,#60,.T.);
#151=EDGE_CURVE('',#126,#125,#61,.T.);
#152=EDGE_CURVE('',#127,#126,#108,.T.);
#153=EDGE_CURVE('',#128,#127,#62,.T.);
#154=EDGE_CURVE('',#118,#128,#109,.T.);
#155=EDGE_CURVE('',#129,#119,#110,.T.);
#156=EDGE_CURVE('',#129,#130,#63,.T.);
#157=EDGE_CURVE('',#131,#130,#111,.T.);
#158=EDGE_CURVE('',#132,#131,#64,.T.);
#159=EDGE_CURVE('',#133,#132,#65,.T.);
#160=EDGE_CURVE('',#134,#133,#112,.T.);
#161=EDGE_CURVE('',#134,#135,#66,.T.);
#162=EDGE_CURVE('',#136,#135,#113,.T.);
#163=EDGE_CURVE('',#136,#137,#67,.T.);
#164=EDGE_CURVE('',#115,#137,#68,.T.);
#165=EDGE_CURVE('',#130,#127,#69,.T.);
#166=EDGE_CURVE('',#126,#131,#70,.T.);
#167=EDGE_CURVE('',#128,#129,#71,.T.);
#168=EDGE_CURVE('',#123,#134,#72,.T.);
#169=EDGE_CURVE('',#133,#124,#73,.T.);
#170=EDGE_CURVE('',#135,#122,#74,.T.);
#171=EDGE_CURVE('',#121,#136,#75,.T.);
#172=EDGE_CURVE('',#120,#137,#76,.T.);
#173=EDGE_CURVE('',#132,#125,#77,.T.);
#174=ORIENTED_EDGE('',*,*,#138,.T.);
#175=ORIENTED_EDGE('',*,*,#139,.T.);
#176=ORIENTED_EDGE('',*,*,#140,.T.);
#177=ORIENTED_EDGE('',*,*,#141,.T.);
#178=ORIENTED_EDGE('',*,*,#141,.F.);
#179=ORIENTED_EDGE('',*,*,#142,.T.);
#180=ORIENTED_EDGE('',*,*,#143,.F.);
#181=ORIENTED_EDGE('',*,*,#144,.F.);
#182=ORIENTED_EDGE('',*,*,#140,.F.);
#183=ORIENTED_EDGE('',*,*,#145,.F.);
#184=ORIENTED_EDGE('',*,*,#146,.F.);
#185=ORIENTED_EDGE('',*,*,#147,.F.);
#186=ORIENTED_EDGE('',*,*,#148,.F.);
#187=ORIENTED_EDGE('',*,*,#149,.F.);
#188=ORIENTED_EDGE('',*,*,#150,.F.);
#189=ORIENTED_EDGE('',*,*,#151,.F.);
#190=ORIENTED_EDGE('',*,*,#152,.F.);
#191=ORIENTED_EDGE('',*,*,#153,.F.);
#192=ORIENTED_EDGE('',*,*,#154,.F.);
#193=ORIENTED_EDGE('',*,*,#142,.F.);
#194=ORIENTED_EDGE('',*,*,#138,.F.);
#195=ORIENTED_EDGE('',*,*,#144,.T.);
#196=ORIENTED_EDGE('',*,*,#155,.F.);
#197=ORIENTED_EDGE('',*,*,#156,.T.);
#198=ORIENTED_EDGE('',*,*,#157,.F.);
#199=ORIENTED_EDGE('',*,*,#158,.F.);
#200=ORIENTED_EDGE('',*,*,#159,.F.);
#201=ORIENTED_EDGE('',*,*,#160,.F.);
#202=ORIENTED_EDGE('',*,*,#161,.T.);
#203=ORIENTED_EDGE('',*,*,#162,.F.);
#204=ORIENTED_EDGE('',*,*,#163,.T.);
#205=ORIENTED_EDGE('',*,*,#164,.F.);
#206=ORIENTED_EDGE('',*,*,#157,.T.);
#207=ORIENTED_EDGE('',*,*,#165,.T.);
#208=ORIENTED_EDGE('',*,*,#152,.T.);
#209=ORIENTED_EDGE('',*,*,#166,.T.);
#210=ORIENTED_EDGE('',*,*,#165,.F.);
#211=ORIENTED_EDGE('',*,*,#156,.F.);
#212=ORIENTED_EDGE('',*,*,#167,.F.);
#213=ORIENTED_EDGE('',*,*,#153,.T.);
#214=ORIENTED_EDGE('',*,*,#154,.T.);
#215=ORIENTED_EDGE('',*,*,#167,.T.);
#216=ORIENTED_EDGE('',*,*,#155,.T.);
#217=ORIENTED_EDGE('',*,*,#143,.T.);
#218=ORIENTED_EDGE('',*,*,#149,.T.);
#219=ORIENTED_EDGE('',*,*,#168,.T.);
#220=ORIENTED_EDGE('',*,*,#160,.T.);
#221=ORIENTED_EDGE('',*,*,#169,.T.);
#222=ORIENTED_EDGE('',*,*,#148,.T.);
#223=ORIENTED_EDGE('',*,*,#170,.F.);
#224=ORIENTED_EDGE('',*,*,#161,.F.);
#225=ORIENTED_EDGE('',*,*,#168,.F.);
#226=ORIENTED_EDGE('',*,*,#147,.T.);
#227=ORIENTED_EDGE('',*,*,#171,.T.);
#228=ORIENTED_EDGE('',*,*,#162,.T.);
#229=ORIENTED_EDGE('',*,*,#170,.T.);
#230=ORIENTED_EDGE('',*,*,#146,.T.);
#231=ORIENTED_EDGE('',*,*,#172,.T.);
#232=ORIENTED_EDGE('',*,*,#163,.F.);
#233=ORIENTED_EDGE('',*,*,#171,.F.);
#234=ORIENTED_EDGE('',*,*,#139,.F.);
#235=ORIENTED_EDGE('',*,*,#164,.T.);
#236=ORIENTED_EDGE('',*,*,#172,.F.);
#237=ORIENTED_EDGE('',*,*,#145,.T.);
#238=ORIENTED_EDGE('',*,*,#166,.F.);
#239=ORIENTED_EDGE('',*,*,#151,.T.);
#240=ORIENTED_EDGE('',*,*,#173,.F.);
#241=ORIENTED_EDGE('',*,*,#158,.T.);
#242=ORIENTED_EDGE('',*,*,#150,.T.);
#243=ORIENTED_EDGE('',*,*,#169,.F.);
#244=ORIENTED_EDGE('',*,*,#159,.T.);
#245=ORIENTED_EDGE('',*,*,#173,.T.);
#246=CYLINDRICAL_SURFACE('',#285,0.4375);
#247=CYLINDRICAL_SURFACE('',#299,0.4375);
#248=CYLINDRICAL_SURFACE('',#301,0.125);
#249=CYLINDRICAL_SURFACE('',#302,0.06);
#250=CYLINDRICAL_SURFACE('',#304,0.06);
#251=ADVANCED_FACE('',(#24),#246,.T.);
#252=ADVANCED_FACE('',(#25),#15,.T.);
#253=ADVANCED_FACE('',(#26),#16,.T.);
#254=ADVANCED_FACE('',(#27),#17,.T.);
#255=ADVANCED_FACE('',(#28),#247,.T.);
#256=ADVANCED_FACE('',(#29),#18,.T.);
#257=ADVANCED_FACE('',(#30),#248,.T.);
#258=ADVANCED_FACE('',(#31),#249,.T.);
#259=ADVANCED_FACE('',(#32),#19,.F.);
#260=ADVANCED_FACE('',(#33),#250,.T.);
#261=ADVANCED_FACE('',(#34),#20,.T.);
#262=ADVANCED_FACE('',(#35),#21,.T.);
#263=ADVANCED_FACE('',(#36),#22,.T.);
#264=ADVANCED_FACE('',(#37),#23,.T.);
#265=CLOSED_SHELL('',(#251,#252,#253,#254,#255,#256,#257,#258,#259,#260,
#261,#262,#263,#264));
#266=DERIVED_UNIT_ELEMENT(#268,1.);
#267=DERIVED_UNIT_ELEMENT(#467,3.);
#268=(
MASS_UNIT()
NAMED_UNIT(*)
SI_UNIT($,.GRAM.)
);
#269=DERIVED_UNIT((#266,#267));
#270=MEASURE_REPRESENTATION_ITEM('density measure',
POSITIVE_RATIO_MEASURE(1.),#269);
#271=PROPERTY_DEFINITION_REPRESENTATION(#276,#273);
#272=PROPERTY_DEFINITION_REPRESENTATION(#277,#274);
#273=REPRESENTATION('material name',(#275),#462);
#274=REPRESENTATION('density',(#270),#462);
#275=DESCRIPTIVE_REPRESENTATION_ITEM('Generic','Generic');
#276=PROPERTY_DEFINITION('material property','material name',#475);
#277=PROPERTY_DEFINITION('material property','density of part',#475);
#278=DATE_TIME_ROLE('creation_date');
#279=APPLIED_DATE_AND_TIME_ASSIGNMENT(#280,#278,(#475));
#280=DATE_AND_TIME(#281,#282);
#281=CALENDAR_DATE(2019,26,9);
#282=LOCAL_TIME(17,44,56.,#283);
#283=COORDINATED_UNIVERSAL_TIME_OFFSET(0,0,.BEHIND.);
#284=AXIS2_PLACEMENT_3D('placement',#385,#309,#310);
#285=AXIS2_PLACEMENT_3D('',#386,#311,#312);
#286=AXIS2_PLACEMENT_3D('',#389,#313,#314);
#287=AXIS2_PLACEMENT_3D('',#393,#316,#317);
#288=AXIS2_PLACEMENT_3D('',#395,#319,#320);
#289=AXIS2_PLACEMENT_3D('',#401,#324,#325);
#290=AXIS2_PLACEMENT_3D('',#407,#328,#329);
#291=AXIS2_PLACEMENT_3D('',#411,#331,#332);
#292=AXIS2_PLACEMENT_3D('',#417,#335,#336);
#293=AXIS2_PLACEMENT_3D('',#420,#338,#339);
#294=AXIS2_PLACEMENT_3D('',#421,#340,#341);
#295=AXIS2_PLACEMENT_3D('',#423,#342,#343);
#296=AXIS2_PLACEMENT_3D('',#427,#345,#346);
#297=AXIS2_PLACEMENT_3D('',#433,#349,#350);
#298=AXIS2_PLACEMENT_3D('',#437,#352,#353);
#299=AXIS2_PLACEMENT_3D('',#441,#356,#357);
#300=AXIS2_PLACEMENT_3D('',#444,#360,#361);
#301=AXIS2_PLACEMENT_3D('',#446,#363,#364);
#302=AXIS2_PLACEMENT_3D('',#447,#365,#366);
#303=AXIS2_PLACEMENT_3D('',#450,#369,#370);
#304=AXIS2_PLACEMENT_3D('',#452,#372,#373);
#305=AXIS2_PLACEMENT_3D('',#454,#375,#376);
#306=AXIS2_PLACEMENT_3D('',#456,#378,#379);
#307=AXIS2_PLACEMENT_3D('',#457,#380,#381);
#308=AXIS2_PLACEMENT_3D('',#459,#383,#384);
#309=DIRECTION('axis',(0.,0.,1.));
#310=DIRECTION('refdir',(1.,0.,0.));
#311=DIRECTION('center_axis',(-1.,0.,0.));
#312=DIRECTION('ref_axis',(0.,0.894427190999916,0.447213595499959));
#313=DIRECTION('center_axis',(-1.,0.,0.));
#314=DIRECTION('ref_axis',(0.,0.894427190999916,0.447213595499959));
#315=DIRECTION('',(-1.,0.,0.));
#316=DIRECTION('center_axis',(1.,3.06161699786838E-16,0.));
#317=DIRECTION('ref_axis',(0.,0.894427190999916,0.447213595499959));
#318=DIRECTION('',(1.,0.,0.));
#319=DIRECTION('center_axis',(0.,0.894427190999916,0.447213595499958));
#320=DIRECTION('ref_axis',(0.,0.447213595499958,-0.894427190999916));
#321=DIRECTION('',(1.36919674566051E-16,-0.447213595499958,0.894427190999916));
#322=DIRECTION('',(-1.,0.,0.));
#323=DIRECTION('',(0.,-0.447213595499958,0.894427190999916));
#324=DIRECTION('center_axis',(-1.,-3.06161699786838E-16,0.));
#325=DIRECTION('ref_axis',(0.,0.,1.));
#326=DIRECTION('',(-3.06161699786838E-16,1.,3.49676543189026E-16));
#327=DIRECTION('',(0.,0.,1.));
#328=DIRECTION('center_axis',(1.,3.06161699786838E-16,0.));
#329=DIRECTION('ref_axis',(0.,0.707106781186548,-0.707106781186548));
#330=DIRECTION('',(-3.06161699786838E-16,1.,0.));
#331=DIRECTION('center_axis',(1.,3.06161699786838E-16,0.));
#332=DIRECTION('ref_axis',(0.,-0.707106781186547,-0.707106781186548));
#333=DIRECTION('',(0.,0.,-1.));
#334=DIRECTION('',(-3.06161699786838E-16,1.,3.49676543189026E-16));
#335=DIRECTION('center_axis',(1.,3.06161699786838E-16,0.));
#336=DIRECTION('ref_axis',(0.,2.99722751304879E-16,-1.));
#337=DIRECTION('',(1.36919674566051E-16,-0.447213595499958,-0.894427190999916));
#338=DIRECTION('center_axis',(1.,3.06161699786838E-16,0.));
#339=DIRECTION('ref_axis',(0.,-1.56380104141561E-15,1.));
#340=DIRECTION('center_axis',(1.,0.,0.));
#341=DIRECTION('ref_axis',(0.,1.,0.));
#342=DIRECTION('center_axis',(-1.,0.,0.));
#343=DIRECTION('ref_axis',(0.,-1.56380104141561E-15,1.));
#344=DIRECTION('',(0.,-0.447213595499958,-0.894427190999916));
#345=DIRECTION('center_axis',(-1.,0.,0.));
#346=DIRECTION('ref_axis',(0.,2.99722751304879E-16,-1.));
#347=DIRECTION('',(0.,-1.,-3.49676543189026E-16));
#348=DIRECTION('',(0.,0.,1.));
#349=DIRECTION('center_axis',(-1.,0.,0.));
#350=DIRECTION('ref_axis',(0.,-0.707106781186547,-0.707106781186548));
#351=DIRECTION('',(0.,1.,0.));
#352=DIRECTION('center_axis',(-1.,0.,0.));
#353=DIRECTION('ref_axis',(0.,0.707106781186548,-0.707106781186548));
#354=DIRECTION('',(0.,0.,1.));
#355=DIRECTION('',(0.,-1.,-3.49676543189026E-16));
#356=DIRECTION('center_axis',(-1.,0.,0.));
#357=DIRECTION('ref_axis',(0.,2.99722751304879E-16,-1.));
#358=DIRECTION('',(-1.,0.,0.));
#359=DIRECTION('',(1.,0.,0.));
#360=DIRECTION('center_axis',(0.,-0.894427190999916,0.447213595499958));
#361=DIRECTION('ref_axis',(0.,0.447213595499958,0.894427190999916));
#362=DIRECTION('',(1.,0.,0.));
#363=DIRECTION('center_axis',(-1.,0.,0.));
#364=DIRECTION('ref_axis',(0.,-1.56380104141561E-15,1.));
#365=DIRECTION('center_axis',(1.,0.,0.));
#366=DIRECTION('ref_axis',(0.,-0.707106781186547,-0.707106781186548));
#367=DIRECTION('',(1.,0.,0.));
#368=DIRECTION('',(-1.,0.,0.));
#369=DIRECTION('center_axis',(0.,0.,1.));
#370=DIRECTION('ref_axis',(0.,1.,0.));
#371=DIRECTION('',(-1.,0.,0.));
#372=DIRECTION('center_axis',(-1.,0.,0.));
#373=DIRECTION('ref_axis',(0.,0.707106781186548,-0.707106781186548));
#374=DIRECTION('',(1.,0.,0.));
#375=DIRECTION('center_axis',(0.,1.,0.));
#376=DIRECTION('ref_axis',(-1.,0.,0.));
#377=DIRECTION('',(1.,0.,0.));
#378=DIRECTION('center_axis',(0.,3.49676543189026E-16,-1.));
#379=DIRECTION('ref_axis',(0.,-1.,-3.49676543189026E-16));
#380=DIRECTION('center_axis',(0.,3.49676543189026E-16,-1.));
#381=DIRECTION('ref_axis',(0.,-1.,-3.49676543189026E-16));
#382=DIRECTION('',(-1.,0.,0.));
#383=DIRECTION('center_axis',(0.,-1.,0.));
#384=DIRECTION('ref_axis',(1.,0.,0.));
#385=CARTESIAN_POINT('',(0.,0.,0.));
#386=CARTESIAN_POINT('Origin',(0.875,0.79211012992192,2.0175));
#387=CARTESIAN_POINT('',(0.875,1.18342202598438,2.21315594803123));
#388=CARTESIAN_POINT('',(0.875,0.792110129921921,1.58));
#389=CARTESIAN_POINT('Origin',(0.875,0.79211012992192,2.0175));
#390=CARTESIAN_POINT('',(-0.625,0.792110129921921,1.58));
#391=CARTESIAN_POINT('',(0.875,0.792110129921921,1.58));
#392=CARTESIAN_POINT('',(-0.625,1.18342202598438,2.21315594803123));
#393=CARTESIAN_POINT('Origin',(-0.625,0.79211012992192,2.0175));
#394=CARTESIAN_POINT('',(0.875,1.18342202598438,2.21315594803123));
#395=CARTESIAN_POINT('Origin',(0.875,0.249999999999999,4.08));
#396=CARTESIAN_POINT('',(-0.625,0.361803398874988,3.85639320225002));
#397=CARTESIAN_POINT('',(-0.625,0.449999999999999,3.68));
#398=CARTESIAN_POINT('',(0.875,0.361803398874988,3.85639320225002));
#399=CARTESIAN_POINT('',(0.875,0.361803398874988,3.85639320225002));
#400=CARTESIAN_POINT('',(0.875,1.25,2.08));
#401=CARTESIAN_POINT('Origin',(-0.625,0.25,1.68034107940555));
#402=CARTESIAN_POINT('',(-0.625,0.5,1.58));
#403=CARTESIAN_POINT('',(-0.625,0.749999999999999,1.58));
#404=CARTESIAN_POINT('',(-0.625,0.5,1.02));
#405=CARTESIAN_POINT('',(-0.625,0.5,0.840170539702777));
#406=CARTESIAN_POINT('',(-0.625,0.44,0.96));
#407=CARTESIAN_POINT('Origin',(-0.625,0.44,1.02));
#408=CARTESIAN_POINT('',(-0.625,0.0600000000000001,0.96));
#409=CARTESIAN_POINT('',(-0.625,0.125,0.96));
#410=CARTESIAN_POINT('',(-0.625,-2.62257407391769E-16,1.02));
#411=CARTESIAN_POINT('Origin',(-0.625,0.06,1.02));
#412=CARTESIAN_POINT('',(-0.625,-2.62257407391769E-16,1.58));
#413=CARTESIAN_POINT('',(-0.625,0.,0.840170539702777));
#414=CARTESIAN_POINT('',(-0.625,-0.292110129921921,1.58));
#415=CARTESIAN_POINT('',(-0.625,0.749999999999999,1.58));
#416=CARTESIAN_POINT('',(-0.625,-0.683422025984385,2.21315594803123));
#417=CARTESIAN_POINT('Origin',(-0.625,-0.292110129921921,2.0175));
#418=CARTESIAN_POINT('',(-0.625,0.138196601125009,3.85639320225002));
#419=CARTESIAN_POINT('',(-0.625,-0.450000000000001,2.68));
#420=CARTESIAN_POINT('Origin',(-0.625,0.249999999999999,3.80049150281253));
#421=CARTESIAN_POINT('Origin',(0.875,0.,0.));
#422=CARTESIAN_POINT('',(0.875,0.138196601125009,3.85639320225002));
#423=CARTESIAN_POINT('Origin',(0.875,0.249999999999999,3.80049150281253));
#424=CARTESIAN_POINT('',(0.875,-0.683422025984385,2.21315594803123));
#425=CARTESIAN_POINT('',(0.875,0.249999999999999,4.08));
#426=CARTESIAN_POINT('',(0.875,-0.292110129921921,1.58));
#427=CARTESIAN_POINT('Origin',(0.875,-0.292110129921921,2.0175));
#428=CARTESIAN_POINT('',(0.875,0.,1.58));
#429=CARTESIAN_POINT('',(0.875,1.25,1.58));
#430=CARTESIAN_POINT('',(0.875,0.,1.02));
#431=CARTESIAN_POINT('',(0.875,0.,0.));
#432=CARTESIAN_POINT('',(0.875,0.06,0.96));
#433=CARTESIAN_POINT('Origin',(0.875,0.06,1.02));
#434=CARTESIAN_POINT('',(0.875,0.44,0.96));
#435=CARTESIAN_POINT('',(0.875,0.,0.96));
#436=CARTESIAN_POINT('',(0.875,0.5,1.02));
#437=CARTESIAN_POINT('Origin',(0.875,0.44,1.02));
#438=CARTESIAN_POINT('',(0.875,0.5,1.58));
#439=CARTESIAN_POINT('',(0.875,0.5,0.));
#440=CARTESIAN_POINT('',(0.875,1.25,1.58));
#441=CARTESIAN_POINT('Origin',(0.875,-0.292110129921921,2.0175));
#442=CARTESIAN_POINT('',(0.875,-0.683422025984385,2.21315594803123));
#443=CARTESIAN_POINT('',(0.875,-0.292110129921921,1.58));
#444=CARTESIAN_POINT('Origin',(0.875,-0.75,2.08));
#445=CARTESIAN_POINT('',(0.875,0.13819660112501,3.85639320225002));
#446=CARTESIAN_POINT('Origin',(0.875,0.249999999999999,3.80049150281253));
#447=CARTESIAN_POINT('Origin',(0.4375,0.06,1.02));
#448=CARTESIAN_POINT('',(0.4375,0.06,0.96));
#449=CARTESIAN_POINT('',(0.4375,0.,1.02));
#450=CARTESIAN_POINT('Origin',(0.875,0.,0.96));
#451=CARTESIAN_POINT('',(0.875,0.44,0.96));
#452=CARTESIAN_POINT('Origin',(0.875,0.44,1.02));
#453=CARTESIAN_POINT('',(0.875,0.5,1.02));
#454=CARTESIAN_POINT('Origin',(0.875,0.5,0.));
#455=CARTESIAN_POINT('',(0.875,0.5,1.58));
#456=CARTESIAN_POINT('Origin',(0.875,1.25,1.58));
#457=CARTESIAN_POINT('Origin',(0.875,1.25,1.58));
#458=CARTESIAN_POINT('',(0.4375,0.,1.58));
#459=CARTESIAN_POINT('Origin',(0.,0.,0.));
#460=UNCERTAINTY_MEASURE_WITH_UNIT(LENGTH_MEASURE(0.000393700787401575),
#465,'DISTANCE_ACCURACY_VALUE',
'Maximum model space distance between geometric entities at asserted c
onnectivities');
#461=UNCERTAINTY_MEASURE_WITH_UNIT(LENGTH_MEASURE(0.000393700787401575),
#465,'DISTANCE_ACCURACY_VALUE',
'Maximum model space distance between geometric entities at asserted c
onnectivities');
#462=(
GEOMETRIC_REPRESENTATION_CONTEXT(3)
GLOBAL_UNCERTAINTY_ASSIGNED_CONTEXT((#460))
GLOBAL_UNIT_ASSIGNED_CONTEXT((#465,#470,#469))
REPRESENTATION_CONTEXT('','3D')
);
#463=(
GEOMETRIC_REPRESENTATION_CONTEXT(3)
GLOBAL_UNCERTAINTY_ASSIGNED_CONTEXT((#461))
GLOBAL_UNIT_ASSIGNED_CONTEXT((#465,#470,#469))
REPRESENTATION_CONTEXT('','3D')
);
#464=DIMENSIONAL_EXPONENTS(1.,0.,0.,0.,0.,0.,0.);
#465=(
CONVERSION_BASED_UNIT('inch',#468)
LENGTH_UNIT()
NAMED_UNIT(#464)
);
#466=(
LENGTH_UNIT()
NAMED_UNIT(*)
SI_UNIT(.MILLI.,.METRE.)
);
#467=(
LENGTH_UNIT()
NAMED_UNIT(*)
SI_UNIT(.CENTI.,.METRE.)
);
#468=LENGTH_MEASURE_WITH_UNIT(LENGTH_MEASURE(25.4),#466);
#469=(
NAMED_UNIT(*)
SI_UNIT($,.STERADIAN.)
SOLID_ANGLE_UNIT()
);
#470=(
NAMED_UNIT(*)
PLANE_ANGLE_UNIT()
SI_UNIT($,.RADIAN.)
);
#471=SHAPE_DEFINITION_REPRESENTATION(#472,#473);
#472=PRODUCT_DEFINITION_SHAPE('',$,#475);
#473=SHAPE_REPRESENTATION('',(#284),#462);
#474=PRODUCT_DEFINITION_CONTEXT('part definition',#479,'design');
#475=PRODUCT_DEFINITION('#2 60 Degree 125R','#2 60 Degree 125R',#476,#474);
#476=PRODUCT_DEFINITION_FORMATION('',$,#481);
#477=PRODUCT_RELATED_PRODUCT_CATEGORY('#2 60 Degree 125R',
'#2 60 Degree 125R',(#481));
#478=APPLICATION_PROTOCOL_DEFINITION('international standard',
'automotive_design',2009,#479);
#479=APPLICATION_CONTEXT(
'Core Data for Automotive Mechanical Design Process');
#480=PRODUCT_CONTEXT('part definition',#479,'mechanical');
#481=PRODUCT('#2 60 Degree 125R','#2 60 Degree 125R',$,(#480));
#482=PRESENTATION_STYLE_ASSIGNMENT((#483));
#483=SURFACE_STYLE_USAGE(.BOTH.,#484);
#484=SURFACE_SIDE_STYLE('',(#485));
#485=SURFACE_STYLE_FILL_AREA(#486);
#486=FILL_AREA_STYLE('',(#487));
#487=FILL_AREA_STYLE_COLOUR('',#488);
#488=COLOUR_RGB('',0.749019607843137,0.749019607843137,0.749019607843137);
ENDSEC;
END-ISO-10303-21;
