ISO-10303-21;
HEADER;
/* Generated by software containing ST-Developer
 * from STEP Tools, Inc. (www.steptools.com) 
 */

FILE_DESCRIPTION(
/* description */ (''),
/* implementation_level */ '2;1');

FILE_NAME(
/* name */ 
'C:\\Users\\jdtag\\OneDrive\\Documents\\Projects\\3D Models\\CNC Machi
ne\\Version 2\\STL Files\\Official STLs\\Spacer.stp',
/* time_stamp */ '2018-01-29T18:51:53-08:00',
/* author */ ('jdtag'),
/* organization */ (''),
/* preprocessor_version */ 'ST-DEVELOPER v16.13',
/* originating_system */ 'Autodesk Inventor 2018',
/* authorisation */ '');

FILE_SCHEMA (('AUTOMOTIVE_DESIGN { 1 0 10303 214 3 1 1 }'));
ENDSEC;

DATA;
#10=MECHANICAL_DESIGN_GEOMETRIC_PRESENTATION_REPRESENTATION('',(#13),#121);
#11=SHAPE_REPRESENTATION_RELATIONSHIP('SRR','None',#131,#12);
#12=ADVANCED_BREP_SHAPE_REPRESENTATION('',(#14),#120);
#13=STYLED_ITEM('',(#140),#14);
#14=MANIFOLD_SOLID_BREP('Solid1',#59);
#15=PLANE('',#85);
#16=PLANE('',#86);
#17=FACE_BOUND('',#26,.T.);
#18=FACE_BOUND('',#28,.T.);
#19=FACE_BOUND('',#30,.T.);
#20=FACE_BOUND('',#32,.T.);
#21=FACE_OUTER_BOUND('',#25,.T.);
#22=FACE_OUTER_BOUND('',#27,.T.);
#23=FACE_OUTER_BOUND('',#29,.T.);
#24=FACE_OUTER_BOUND('',#31,.T.);
#25=EDGE_LOOP('',(#45));
#26=EDGE_LOOP('',(#46));
#27=EDGE_LOOP('',(#47));
#28=EDGE_LOOP('',(#48));
#29=EDGE_LOOP('',(#49));
#30=EDGE_LOOP('',(#50));
#31=EDGE_LOOP('',(#51));
#32=EDGE_LOOP('',(#52));
#33=CIRCLE('',#80,0.102362204724409);
#34=CIRCLE('',#81,0.102362204724409);
#35=CIRCLE('',#83,0.202362204724409);
#36=CIRCLE('',#84,0.202362204724409);
#37=VERTEX_POINT('',#107);
#38=VERTEX_POINT('',#109);
#39=VERTEX_POINT('',#112);
#40=VERTEX_POINT('',#114);
#41=EDGE_CURVE('',#37,#37,#33,.T.);
#42=EDGE_CURVE('',#38,#38,#34,.T.);
#43=EDGE_CURVE('',#39,#39,#35,.T.);
#44=EDGE_CURVE('',#40,#40,#36,.T.);
#45=ORIENTED_EDGE('',*,*,#41,.F.);
#46=ORIENTED_EDGE('',*,*,#42,.F.);
#47=ORIENTED_EDGE('',*,*,#43,.F.);
#48=ORIENTED_EDGE('',*,*,#44,.F.);
#49=ORIENTED_EDGE('',*,*,#44,.T.);
#50=ORIENTED_EDGE('',*,*,#42,.T.);
#51=ORIENTED_EDGE('',*,*,#43,.T.);
#52=ORIENTED_EDGE('',*,*,#41,.T.);
#53=CYLINDRICAL_SURFACE('',#79,0.102362204724409);
#54=CYLINDRICAL_SURFACE('',#82,0.202362204724409);
#55=ADVANCED_FACE('',(#21,#17),#53,.F.);
#56=ADVANCED_FACE('',(#22,#18),#54,.T.);
#57=ADVANCED_FACE('',(#23,#19),#15,.F.);
#58=ADVANCED_FACE('',(#24,#20),#16,.T.);
#59=CLOSED_SHELL('',(#55,#56,#57,#58));
#60=DERIVED_UNIT_ELEMENT(#62,0.);
#61=DERIVED_UNIT_ELEMENT(#125,0.);
#62=(
MASS_UNIT()
NAMED_UNIT(*)
SI_UNIT($,.GRAM.)
);
#63=DERIVED_UNIT((#60,#61));
#64=MEASURE_REPRESENTATION_ITEM('density measure',
POSITIVE_RATIO_MEASURE(1.06),#63);
#65=PROPERTY_DEFINITION_REPRESENTATION(#70,#67);
#66=PROPERTY_DEFINITION_REPRESENTATION(#71,#68);
#67=REPRESENTATION('material name',(#69),#120);
#68=REPRESENTATION('density',(#64),#120);
#69=DESCRIPTIVE_REPRESENTATION_ITEM('ABS Plastic','ABS Plastic');
#70=PROPERTY_DEFINITION('material property','material name',#133);
#71=PROPERTY_DEFINITION('material property','density of part',#133);
#72=DATE_TIME_ROLE('creation_date');
#73=APPLIED_DATE_AND_TIME_ASSIGNMENT(#74,#72,(#133));
#74=DATE_AND_TIME(#75,#76);
#75=CALENDAR_DATE(2017,20,10);
#76=LOCAL_TIME(2,36,26.,#77);
#77=COORDINATED_UNIVERSAL_TIME_OFFSET(0,0,.BEHIND.);
#78=AXIS2_PLACEMENT_3D('placement',#105,#87,#88);
#79=AXIS2_PLACEMENT_3D('',#106,#89,#90);
#80=AXIS2_PLACEMENT_3D('',#108,#91,#92);
#81=AXIS2_PLACEMENT_3D('',#110,#93,#94);
#82=AXIS2_PLACEMENT_3D('',#111,#95,#96);
#83=AXIS2_PLACEMENT_3D('',#113,#97,#98);
#84=AXIS2_PLACEMENT_3D('',#115,#99,#100);
#85=AXIS2_PLACEMENT_3D('',#116,#101,#102);
#86=AXIS2_PLACEMENT_3D('',#117,#103,#104);
#87=DIRECTION('axis',(0.,0.,1.));
#88=DIRECTION('refdir',(1.,0.,0.));
#89=DIRECTION('center_axis',(0.,0.,1.));
#90=DIRECTION('ref_axis',(-1.,0.,0.));
#91=DIRECTION('center_axis',(0.,0.,-1.));
#92=DIRECTION('ref_axis',(-1.,0.,0.));
#93=DIRECTION('center_axis',(0.,0.,1.));
#94=DIRECTION('ref_axis',(-1.,0.,0.));
#95=DIRECTION('center_axis',(0.,0.,1.));
#96=DIRECTION('ref_axis',(-1.,0.,0.));
#97=DIRECTION('center_axis',(0.,0.,1.));
#98=DIRECTION('ref_axis',(-1.,0.,0.));
#99=DIRECTION('center_axis',(0.,0.,-1.));
#100=DIRECTION('ref_axis',(-1.,0.,0.));
#101=DIRECTION('center_axis',(0.,0.,1.));
#102=DIRECTION('ref_axis',(1.,0.,0.));
#103=DIRECTION('center_axis',(0.,0.,1.));
#104=DIRECTION('ref_axis',(1.,0.,0.));
#105=CARTESIAN_POINT('',(0.,0.,0.));
#106=CARTESIAN_POINT('Origin',(0.,0.,0.));
#107=CARTESIAN_POINT('',(0.102362204724409,1.25357546369414E-17,0.31));
#108=CARTESIAN_POINT('Origin',(0.,0.,0.31));
#109=CARTESIAN_POINT('',(0.102362204724409,1.25357546369414E-17,0.));
#110=CARTESIAN_POINT('Origin',(0.,0.,0.));
#111=CARTESIAN_POINT('Origin',(0.,0.,0.));
#112=CARTESIAN_POINT('',(0.202362204724409,2.47822226284149E-17,0.31));
#113=CARTESIAN_POINT('Origin',(0.,0.,0.31));
#114=CARTESIAN_POINT('',(0.202362204724409,2.47822226284149E-17,0.));
#115=CARTESIAN_POINT('Origin',(0.,0.,0.));
#116=CARTESIAN_POINT('Origin',(-1.62381968593161E-17,0.,0.));
#117=CARTESIAN_POINT('Origin',(-1.62381968593161E-17,0.,0.31));
#118=UNCERTAINTY_MEASURE_WITH_UNIT(LENGTH_MEASURE(0.000393700787401575),
#123,'DISTANCE_ACCURACY_VALUE',
'Maximum model space distance between geometric entities at asserted c
onnectivities');
#119=UNCERTAINTY_MEASURE_WITH_UNIT(LENGTH_MEASURE(0.000393700787401575),
#123,'DISTANCE_ACCURACY_VALUE',
'Maximum model space distance between geometric entities at asserted c
onnectivities');
#120=(
GEOMETRIC_REPRESENTATION_CONTEXT(3)
GLOBAL_UNCERTAINTY_ASSIGNED_CONTEXT((#118))
GLOBAL_UNIT_ASSIGNED_CONTEXT((#123,#128,#127))
REPRESENTATION_CONTEXT('','3D')
);
#121=(
GEOMETRIC_REPRESENTATION_CONTEXT(3)
GLOBAL_UNCERTAINTY_ASSIGNED_CONTEXT((#119))
GLOBAL_UNIT_ASSIGNED_CONTEXT((#123,#128,#127))
REPRESENTATION_CONTEXT('','3D')
);
#122=DIMENSIONAL_EXPONENTS(1.,0.,0.,0.,0.,0.,0.);
#123=(
CONVERSION_BASED_UNIT('inch',#126)
LENGTH_UNIT()
NAMED_UNIT(#122)
);
#124=(
LENGTH_UNIT()
NAMED_UNIT(*)
SI_UNIT(.MILLI.,.METRE.)
);
#125=(
LENGTH_UNIT()
NAMED_UNIT(*)
SI_UNIT(.CENTI.,.METRE.)
);
#126=LENGTH_MEASURE_WITH_UNIT(LENGTH_MEASURE(25.4),#124);
#127=(
NAMED_UNIT(*)
SI_UNIT($,.STERADIAN.)
SOLID_ANGLE_UNIT()
);
#128=(
NAMED_UNIT(*)
PLANE_ANGLE_UNIT()
SI_UNIT($,.RADIAN.)
);
#129=SHAPE_DEFINITION_REPRESENTATION(#130,#131);
#130=PRODUCT_DEFINITION_SHAPE('',$,#133);
#131=SHAPE_REPRESENTATION('',(#78),#120);
#132=PRODUCT_DEFINITION_CONTEXT('part definition',#137,'design');
#133=PRODUCT_DEFINITION('Spacer','Spacer',#134,#132);
#134=PRODUCT_DEFINITION_FORMATION('',$,#139);
#135=PRODUCT_RELATED_PRODUCT_CATEGORY('Spacer','Spacer',(#139));
#136=APPLICATION_PROTOCOL_DEFINITION('international standard',
'automotive_design',2009,#137);
#137=APPLICATION_CONTEXT(
'Core Data for Automotive Mechanical Design Process');
#138=PRODUCT_CONTEXT('part definition',#137,'mechanical');
#139=PRODUCT('Spacer','Spacer',$,(#138));
#140=PRESENTATION_STYLE_ASSIGNMENT((#141));
#141=SURFACE_STYLE_USAGE(.BOTH.,#142);
#142=SURFACE_SIDE_STYLE('',(#143));
#143=SURFACE_STYLE_FILL_AREA(#144);
#144=FILL_AREA_STYLE('',(#145));
#145=FILL_AREA_STYLE_COLOUR('',#146);
#146=COLOUR_RGB('',0.811764705882353,0.309803921568627,0.);
ENDSEC;
END-ISO-10303-21;
