ISO-10303-21;
HEADER;
/* Generated by software containing ST-Developer
 * from STEP Tools, Inc. (www.steptools.com) 
 */

FILE_DESCRIPTION(
/* description */ (''),
/* implementation_level */ '2;1');

FILE_NAME(
/* name */ 
'Z:\\_Europa Customers\\_Europa\\Anthony\\Press Brake Tooling\\America
n\\Punches\\STPs\\Gooseneck 125R.stp',
/* time_stamp */ '2019-10-05T16:47:15-04:00',
/* author */ ('Angus'),
/* organization */ (''),
/* preprocessor_version */ 'ST-DEVELOPER v17',
/* originating_system */ 'Autodesk Inventor 2019',
/* authorisation */ '');

FILE_SCHEMA (('AUTOMOTIVE_DESIGN { 1 0 10303 214 3 1 1 }'));
ENDSEC;

DATA;
#10=MECHANICAL_DESIGN_GEOMETRIC_PRESENTATION_REPRESENTATION('',(#13),#533);
#11=SHAPE_REPRESENTATION_RELATIONSHIP('SRR','None',#543,#12);
#12=ADVANCED_BREP_SHAPE_REPRESENTATION('',(#14),#532);
#13=STYLED_ITEM('',(#552),#14);
#14=MANIFOLD_SOLID_BREP('Solid1',#303);
#15=PLANE('',#329);
#16=PLANE('',#337);
#17=PLANE('',#340);
#18=PLANE('',#341);
#19=PLANE('',#347);
#20=PLANE('',#349);
#21=PLANE('',#350);
#22=PLANE('',#351);
#23=PLANE('',#352);
#24=FACE_OUTER_BOUND('',#40,.T.);
#25=FACE_OUTER_BOUND('',#41,.T.);
#26=FACE_OUTER_BOUND('',#42,.T.);
#27=FACE_OUTER_BOUND('',#43,.T.);
#28=FACE_OUTER_BOUND('',#44,.T.);
#29=FACE_OUTER_BOUND('',#45,.T.);
#30=FACE_OUTER_BOUND('',#46,.T.);
#31=FACE_OUTER_BOUND('',#47,.T.);
#32=FACE_OUTER_BOUND('',#48,.T.);
#33=FACE_OUTER_BOUND('',#49,.T.);
#34=FACE_OUTER_BOUND('',#50,.T.);
#35=FACE_OUTER_BOUND('',#51,.T.);
#36=FACE_OUTER_BOUND('',#52,.T.);
#37=FACE_OUTER_BOUND('',#53,.T.);
#38=FACE_OUTER_BOUND('',#54,.T.);
#39=FACE_OUTER_BOUND('',#55,.T.);
#40=EDGE_LOOP('',(#196,#197,#198,#199));
#41=EDGE_LOOP('',(#200,#201,#202,#203));
#42=EDGE_LOOP('',(#204,#205,#206,#207,#208,#209,#210,#211,#212,#213,#214,
#215,#216,#217));
#43=EDGE_LOOP('',(#218,#219,#220,#221));
#44=EDGE_LOOP('',(#222,#223,#224,#225));
#45=EDGE_LOOP('',(#226,#227,#228,#229));
#46=EDGE_LOOP('',(#230,#231,#232,#233));
#47=EDGE_LOOP('',(#234,#235,#236,#237,#238,#239,#240,#241,#242,#243,#244,
#245,#246,#247));
#48=EDGE_LOOP('',(#248,#249,#250,#251));
#49=EDGE_LOOP('',(#252,#253,#254,#255));
#50=EDGE_LOOP('',(#256,#257,#258,#259));
#51=EDGE_LOOP('',(#260,#261,#262,#263));
#52=EDGE_LOOP('',(#264,#265,#266,#267));
#53=EDGE_LOOP('',(#268,#269,#270,#271));
#54=EDGE_LOOP('',(#272,#273,#274,#275));
#55=EDGE_LOOP('',(#276,#277,#278,#279));
#56=LINE('',#449,#84);
#57=LINE('',#452,#85);
#58=LINE('',#457,#86);
#59=LINE('',#461,#87);
#60=LINE('',#465,#88);
#61=LINE('',#469,#89);
#62=LINE('',#471,#90);
#63=LINE('',#475,#91);
#64=LINE('',#479,#92);
#65=LINE('',#481,#93);
#66=LINE('',#486,#94);
#67=LINE('',#489,#95);
#68=LINE('',#490,#96);
#69=LINE('',#495,#97);
#70=LINE('',#496,#98);
#71=LINE('',#499,#99);
#72=LINE('',#500,#100);
#73=LINE('',#503,#101);
#74=LINE('',#505,#102);
#75=LINE('',#509,#103);
#76=LINE('',#513,#104);
#77=LINE('',#514,#105);
#78=LINE('',#518,#106);
#79=LINE('',#519,#107);
#80=LINE('',#521,#108);
#81=LINE('',#523,#109);
#82=LINE('',#525,#110);
#83=LINE('',#528,#111);
#84=VECTOR('',#359,0.393700787401575);
#85=VECTOR('',#362,0.393700787401575);
#86=VECTOR('',#367,0.393700787401575);
#87=VECTOR('',#372,0.393700787401575);
#88=VECTOR('',#375,0.393700787401575);
#89=VECTOR('',#378,0.393700787401575);
#90=VECTOR('',#379,0.393700787401575);
#91=VECTOR('',#382,0.393700787401575);
#92=VECTOR('',#385,0.393700787401575);
#93=VECTOR('',#386,0.393700787401575);
#94=VECTOR('',#393,0.393700787401575);
#95=VECTOR('',#396,0.393700787401575);
#96=VECTOR('',#397,0.393700787401575);
#97=VECTOR('',#402,0.4375);
#98=VECTOR('',#403,0.4375);
#99=VECTOR('',#406,0.393700787401575);
#100=VECTOR('',#407,0.393700787401575);
#101=VECTOR('',#410,0.393700787401575);
#102=VECTOR('',#411,0.393700787401575);
#103=VECTOR('',#414,0.393700787401575);
#104=VECTOR('',#417,0.393700787401575);
#105=VECTOR('',#418,0.393700787401575);
#106=VECTOR('',#425,0.393700787401575);
#107=VECTOR('',#426,0.393700787401575);
#108=VECTOR('',#429,0.393700787401575);
#109=VECTOR('',#432,0.393700787401575);
#110=VECTOR('',#435,0.393700787401575);
#111=VECTOR('',#440,0.393700787401575);
#112=CIRCLE('',#324,0.25);
#113=CIRCLE('',#325,0.25);
#114=CIRCLE('',#327,1.11946315100734);
#115=CIRCLE('',#328,1.11946315100734);
#116=CIRCLE('',#330,0.125);
#117=CIRCLE('',#331,0.4375);
#118=CIRCLE('',#332,0.06);
#119=CIRCLE('',#333,0.06);
#120=CIRCLE('',#334,0.06);
#121=CIRCLE('',#336,0.06);
#122=CIRCLE('',#339,0.4375);
#123=CIRCLE('',#342,0.06);
#124=CIRCLE('',#343,0.06);
#125=CIRCLE('',#344,0.125);
#126=VERTEX_POINT('',#445);
#127=VERTEX_POINT('',#446);
#128=VERTEX_POINT('',#448);
#129=VERTEX_POINT('',#450);
#130=VERTEX_POINT('',#454);
#131=VERTEX_POINT('',#456);
#132=VERTEX_POINT('',#460);
#133=VERTEX_POINT('',#462);
#134=VERTEX_POINT('',#464);
#135=VERTEX_POINT('',#466);
#136=VERTEX_POINT('',#468);
#137=VERTEX_POINT('',#470);
#138=VERTEX_POINT('',#472);
#139=VERTEX_POINT('',#474);
#140=VERTEX_POINT('',#476);
#141=VERTEX_POINT('',#478);
#142=VERTEX_POINT('',#480);
#143=VERTEX_POINT('',#484);
#144=VERTEX_POINT('',#488);
#145=VERTEX_POINT('',#492);
#146=VERTEX_POINT('',#493);
#147=VERTEX_POINT('',#498);
#148=VERTEX_POINT('',#502);
#149=VERTEX_POINT('',#504);
#150=VERTEX_POINT('',#506);
#151=VERTEX_POINT('',#508);
#152=VERTEX_POINT('',#510);
#153=VERTEX_POINT('',#512);
#154=EDGE_CURVE('',#126,#127,#112,.T.);
#155=EDGE_CURVE('',#127,#128,#56,.T.);
#156=EDGE_CURVE('',#128,#129,#113,.T.);
#157=EDGE_CURVE('',#129,#126,#57,.T.);
#158=EDGE_CURVE('',#130,#129,#114,.T.);
#159=EDGE_CURVE('',#131,#130,#58,.T.);
#160=EDGE_CURVE('',#126,#131,#115,.T.);
#161=EDGE_CURVE('',#132,#128,#59,.T.);
#162=EDGE_CURVE('',#133,#132,#116,.T.);
#163=EDGE_CURVE('',#134,#133,#60,.T.);
#164=EDGE_CURVE('',#135,#134,#117,.T.);
#165=EDGE_CURVE('',#136,#135,#61,.T.);
#166=EDGE_CURVE('',#137,#136,#62,.T.);
#167=EDGE_CURVE('',#138,#137,#118,.T.);
#168=EDGE_CURVE('',#139,#138,#63,.T.);
#169=EDGE_CURVE('',#140,#139,#119,.T.);
#170=EDGE_CURVE('',#141,#140,#64,.T.);
#171=EDGE_CURVE('',#142,#141,#65,.T.);
#172=EDGE_CURVE('',#130,#142,#120,.T.);
#173=EDGE_CURVE('',#143,#131,#121,.T.);
#174=EDGE_CURVE('',#142,#143,#66,.T.);
#175=EDGE_CURVE('',#144,#127,#67,.T.);
#176=EDGE_CURVE('',#132,#144,#68,.T.);
#177=EDGE_CURVE('',#145,#146,#122,.T.);
#178=EDGE_CURVE('',#146,#135,#69,.T.);
#179=EDGE_CURVE('',#134,#145,#70,.T.);
#180=EDGE_CURVE('',#147,#133,#71,.T.);
#181=EDGE_CURVE('',#145,#147,#72,.T.);
#182=EDGE_CURVE('',#148,#143,#73,.T.);
#183=EDGE_CURVE('',#149,#148,#74,.T.);
#184=EDGE_CURVE('',#150,#149,#123,.T.);
#185=EDGE_CURVE('',#150,#151,#75,.T.);
#186=EDGE_CURVE('',#152,#151,#124,.T.);
#187=EDGE_CURVE('',#152,#153,#76,.T.);
#188=EDGE_CURVE('',#146,#153,#77,.T.);
#189=EDGE_CURVE('',#144,#147,#125,.T.);
#190=EDGE_CURVE('',#139,#150,#78,.T.);
#191=EDGE_CURVE('',#149,#140,#79,.T.);
#192=EDGE_CURVE('',#151,#138,#80,.T.);
#193=EDGE_CURVE('',#137,#152,#81,.T.);
#194=EDGE_CURVE('',#136,#153,#82,.T.);
#195=EDGE_CURVE('',#148,#141,#83,.T.);
#196=ORIENTED_EDGE('',*,*,#154,.T.);
#197=ORIENTED_EDGE('',*,*,#155,.T.);
#198=ORIENTED_EDGE('',*,*,#156,.T.);
#199=ORIENTED_EDGE('',*,*,#157,.T.);
#200=ORIENTED_EDGE('',*,*,#157,.F.);
#201=ORIENTED_EDGE('',*,*,#158,.F.);
#202=ORIENTED_EDGE('',*,*,#159,.F.);
#203=ORIENTED_EDGE('',*,*,#160,.F.);
#204=ORIENTED_EDGE('',*,*,#156,.F.);
#205=ORIENTED_EDGE('',*,*,#161,.F.);
#206=ORIENTED_EDGE('',*,*,#162,.F.);
#207=ORIENTED_EDGE('',*,*,#163,.F.);
#208=ORIENTED_EDGE('',*,*,#164,.F.);
#209=ORIENTED_EDGE('',*,*,#165,.F.);
#210=ORIENTED_EDGE('',*,*,#166,.F.);
#211=ORIENTED_EDGE('',*,*,#167,.F.);
#212=ORIENTED_EDGE('',*,*,#168,.F.);
#213=ORIENTED_EDGE('',*,*,#169,.F.);
#214=ORIENTED_EDGE('',*,*,#170,.F.);
#215=ORIENTED_EDGE('',*,*,#171,.F.);
#216=ORIENTED_EDGE('',*,*,#172,.F.);
#217=ORIENTED_EDGE('',*,*,#158,.T.);
#218=ORIENTED_EDGE('',*,*,#173,.T.);
#219=ORIENTED_EDGE('',*,*,#159,.T.);
#220=ORIENTED_EDGE('',*,*,#172,.T.);
#221=ORIENTED_EDGE('',*,*,#174,.T.);
#222=ORIENTED_EDGE('',*,*,#155,.F.);
#223=ORIENTED_EDGE('',*,*,#175,.F.);
#224=ORIENTED_EDGE('',*,*,#176,.F.);
#225=ORIENTED_EDGE('',*,*,#161,.T.);
#226=ORIENTED_EDGE('',*,*,#177,.T.);
#227=ORIENTED_EDGE('',*,*,#178,.T.);
#228=ORIENTED_EDGE('',*,*,#164,.T.);
#229=ORIENTED_EDGE('',*,*,#179,.T.);
#230=ORIENTED_EDGE('',*,*,#179,.F.);
#231=ORIENTED_EDGE('',*,*,#163,.T.);
#232=ORIENTED_EDGE('',*,*,#180,.F.);
#233=ORIENTED_EDGE('',*,*,#181,.F.);
#234=ORIENTED_EDGE('',*,*,#154,.F.);
#235=ORIENTED_EDGE('',*,*,#160,.T.);
#236=ORIENTED_EDGE('',*,*,#173,.F.);
#237=ORIENTED_EDGE('',*,*,#182,.F.);
#238=ORIENTED_EDGE('',*,*,#183,.F.);
#239=ORIENTED_EDGE('',*,*,#184,.F.);
#240=ORIENTED_EDGE('',*,*,#185,.T.);
#241=ORIENTED_EDGE('',*,*,#186,.F.);
#242=ORIENTED_EDGE('',*,*,#187,.T.);
#243=ORIENTED_EDGE('',*,*,#188,.F.);
#244=ORIENTED_EDGE('',*,*,#177,.F.);
#245=ORIENTED_EDGE('',*,*,#181,.T.);
#246=ORIENTED_EDGE('',*,*,#189,.F.);
#247=ORIENTED_EDGE('',*,*,#175,.T.);
#248=ORIENTED_EDGE('',*,*,#162,.T.);
#249=ORIENTED_EDGE('',*,*,#176,.T.);
#250=ORIENTED_EDGE('',*,*,#189,.T.);
#251=ORIENTED_EDGE('',*,*,#180,.T.);
#252=ORIENTED_EDGE('',*,*,#169,.T.);
#253=ORIENTED_EDGE('',*,*,#190,.T.);
#254=ORIENTED_EDGE('',*,*,#184,.T.);
#255=ORIENTED_EDGE('',*,*,#191,.T.);
#256=ORIENTED_EDGE('',*,*,#168,.T.);
#257=ORIENTED_EDGE('',*,*,#192,.F.);
#258=ORIENTED_EDGE('',*,*,#185,.F.);
#259=ORIENTED_EDGE('',*,*,#190,.F.);
#260=ORIENTED_EDGE('',*,*,#167,.T.);
#261=ORIENTED_EDGE('',*,*,#193,.T.);
#262=ORIENTED_EDGE('',*,*,#186,.T.);
#263=ORIENTED_EDGE('',*,*,#192,.T.);
#264=ORIENTED_EDGE('',*,*,#166,.T.);
#265=ORIENTED_EDGE('',*,*,#194,.T.);
#266=ORIENTED_EDGE('',*,*,#187,.F.);
#267=ORIENTED_EDGE('',*,*,#193,.F.);
#268=ORIENTED_EDGE('',*,*,#178,.F.);
#269=ORIENTED_EDGE('',*,*,#188,.T.);
#270=ORIENTED_EDGE('',*,*,#194,.F.);
#271=ORIENTED_EDGE('',*,*,#165,.T.);
#272=ORIENTED_EDGE('',*,*,#174,.F.);
#273=ORIENTED_EDGE('',*,*,#171,.T.);
#274=ORIENTED_EDGE('',*,*,#195,.F.);
#275=ORIENTED_EDGE('',*,*,#182,.T.);
#276=ORIENTED_EDGE('',*,*,#170,.T.);
#277=ORIENTED_EDGE('',*,*,#191,.F.);
#278=ORIENTED_EDGE('',*,*,#183,.T.);
#279=ORIENTED_EDGE('',*,*,#195,.T.);
#280=CYLINDRICAL_SURFACE('',#323,0.25);
#281=CYLINDRICAL_SURFACE('',#326,1.11946315100734);
#282=CYLINDRICAL_SURFACE('',#335,0.06);
#283=CYLINDRICAL_SURFACE('',#338,0.4375);
#284=CYLINDRICAL_SURFACE('',#345,0.125);
#285=CYLINDRICAL_SURFACE('',#346,0.06);
#286=CYLINDRICAL_SURFACE('',#348,0.06);
#287=ADVANCED_FACE('',(#24),#280,.T.);
#288=ADVANCED_FACE('',(#25),#281,.F.);
#289=ADVANCED_FACE('',(#26),#15,.T.);
#290=ADVANCED_FACE('',(#27),#282,.T.);
#291=ADVANCED_FACE('',(#28),#16,.T.);
#292=ADVANCED_FACE('',(#29),#283,.T.);
#293=ADVANCED_FACE('',(#30),#17,.T.);
#294=ADVANCED_FACE('',(#31),#18,.T.);
#295=ADVANCED_FACE('',(#32),#284,.T.);
#296=ADVANCED_FACE('',(#33),#285,.T.);
#297=ADVANCED_FACE('',(#34),#19,.F.);
#298=ADVANCED_FACE('',(#35),#286,.T.);
#299=ADVANCED_FACE('',(#36),#20,.T.);
#300=ADVANCED_FACE('',(#37),#21,.T.);
#301=ADVANCED_FACE('',(#38),#22,.T.);
#302=ADVANCED_FACE('',(#39),#23,.T.);
#303=CLOSED_SHELL('',(#287,#288,#289,#290,#291,#292,#293,#294,#295,#296,
#297,#298,#299,#300,#301,#302));
#304=DERIVED_UNIT_ELEMENT(#306,1.);
#305=DERIVED_UNIT_ELEMENT(#537,3.);
#306=(
MASS_UNIT()
NAMED_UNIT(*)
SI_UNIT($,.GRAM.)
);
#307=DERIVED_UNIT((#304,#305));
#308=MEASURE_REPRESENTATION_ITEM('density measure',
POSITIVE_RATIO_MEASURE(1.),#307);
#309=PROPERTY_DEFINITION_REPRESENTATION(#314,#311);
#310=PROPERTY_DEFINITION_REPRESENTATION(#315,#312);
#311=REPRESENTATION('material name',(#313),#532);
#312=REPRESENTATION('density',(#308),#532);
#313=DESCRIPTIVE_REPRESENTATION_ITEM('Generic','Generic');
#314=PROPERTY_DEFINITION('material property','material name',#545);
#315=PROPERTY_DEFINITION('material property','density of part',#545);
#316=DATE_TIME_ROLE('creation_date');
#317=APPLIED_DATE_AND_TIME_ASSIGNMENT(#318,#316,(#545));
#318=DATE_AND_TIME(#319,#320);
#319=CALENDAR_DATE(2019,26,9);
#320=LOCAL_TIME(17,44,56.,#321);
#321=COORDINATED_UNIVERSAL_TIME_OFFSET(0,0,.BEHIND.);
#322=AXIS2_PLACEMENT_3D('placement',#443,#353,#354);
#323=AXIS2_PLACEMENT_3D('',#444,#355,#356);
#324=AXIS2_PLACEMENT_3D('',#447,#357,#358);
#325=AXIS2_PLACEMENT_3D('',#451,#360,#361);
#326=AXIS2_PLACEMENT_3D('',#453,#363,#364);
#327=AXIS2_PLACEMENT_3D('',#455,#365,#366);
#328=AXIS2_PLACEMENT_3D('',#458,#368,#369);
#329=AXIS2_PLACEMENT_3D('',#459,#370,#371);
#330=AXIS2_PLACEMENT_3D('',#463,#373,#374);
#331=AXIS2_PLACEMENT_3D('',#467,#376,#377);
#332=AXIS2_PLACEMENT_3D('',#473,#380,#381);
#333=AXIS2_PLACEMENT_3D('',#477,#383,#384);
#334=AXIS2_PLACEMENT_3D('',#482,#387,#388);
#335=AXIS2_PLACEMENT_3D('',#483,#389,#390);
#336=AXIS2_PLACEMENT_3D('',#485,#391,#392);
#337=AXIS2_PLACEMENT_3D('',#487,#394,#395);
#338=AXIS2_PLACEMENT_3D('',#491,#398,#399);
#339=AXIS2_PLACEMENT_3D('',#494,#400,#401);
#340=AXIS2_PLACEMENT_3D('',#497,#404,#405);
#341=AXIS2_PLACEMENT_3D('',#501,#408,#409);
#342=AXIS2_PLACEMENT_3D('',#507,#412,#413);
#343=AXIS2_PLACEMENT_3D('',#511,#415,#416);
#344=AXIS2_PLACEMENT_3D('',#515,#419,#420);
#345=AXIS2_PLACEMENT_3D('',#516,#421,#422);
#346=AXIS2_PLACEMENT_3D('',#517,#423,#424);
#347=AXIS2_PLACEMENT_3D('',#520,#427,#428);
#348=AXIS2_PLACEMENT_3D('',#522,#430,#431);
#349=AXIS2_PLACEMENT_3D('',#524,#433,#434);
#350=AXIS2_PLACEMENT_3D('',#526,#436,#437);
#351=AXIS2_PLACEMENT_3D('',#527,#438,#439);
#352=AXIS2_PLACEMENT_3D('',#529,#441,#442);
#353=DIRECTION('axis',(0.,0.,1.));
#354=DIRECTION('refdir',(1.,0.,0.));
#355=DIRECTION('center_axis',(1.,0.,0.));
#356=DIRECTION('ref_axis',(0.,-0.991979665189913,-0.126397562673135));
#357=DIRECTION('center_axis',(-1.,0.,0.));
#358=DIRECTION('ref_axis',(0.,-0.991979665189913,-0.126397562673135));
#359=DIRECTION('',(-1.,0.,0.));
#360=DIRECTION('center_axis',(1.,3.06161699786838E-16,0.));
#361=DIRECTION('ref_axis',(0.,-0.991979665189913,-0.126397562673135));
#362=DIRECTION('',(1.,0.,0.));
#363=DIRECTION('center_axis',(-1.,0.,0.));
#364=DIRECTION('ref_axis',(0.,0.45829020376476,-0.888802615395148));
#365=DIRECTION('center_axis',(1.,3.06161699786838E-16,0.));
#366=DIRECTION('ref_axis',(0.,0.45829020376476,-0.888802615395148));
#367=DIRECTION('',(-1.,0.,0.));
#368=DIRECTION('center_axis',(-1.,0.,0.));
#369=DIRECTION('ref_axis',(0.,0.45829020376476,-0.888802615395148));
#370=DIRECTION('center_axis',(-1.,-3.06161699786838E-16,0.));
#371=DIRECTION('ref_axis',(0.,0.,1.));
#372=DIRECTION('',(1.36919674566051E-16,-0.447213595499958,-0.894427190999916));
#373=DIRECTION('center_axis',(1.,3.06161699786838E-16,0.));
#374=DIRECTION('ref_axis',(0.,-1.56380104141561E-15,1.));
#375=DIRECTION('',(1.36919674566051E-16,-0.447213595499958,0.894427190999916));
#376=DIRECTION('center_axis',(1.,3.06161699786838E-16,0.));
#377=DIRECTION('ref_axis',(0.,0.894427190999916,0.447213595499959));
#378=DIRECTION('',(-3.06161699786838E-16,1.,3.49676543189026E-16));
#379=DIRECTION('',(0.,0.,1.));
#380=DIRECTION('center_axis',(1.,3.06161699786838E-16,0.));
#381=DIRECTION('ref_axis',(0.,0.707106781186548,-0.707106781186548));
#382=DIRECTION('',(-3.06161699786838E-16,1.,0.));
#383=DIRECTION('center_axis',(1.,3.06161699786838E-16,0.));
#384=DIRECTION('ref_axis',(0.,-0.707106781186547,-0.707106781186548));
#385=DIRECTION('',(0.,0.,-1.));
#386=DIRECTION('',(-3.06161699786838E-16,1.,3.49676543189026E-16));
#387=DIRECTION('center_axis',(1.,3.06161699786838E-16,0.));
#388=DIRECTION('ref_axis',(0.,-0.9467624015922,-0.3219331528926));
#389=DIRECTION('center_axis',(1.,0.,0.));
#390=DIRECTION('ref_axis',(0.,-0.9467624015922,-0.3219331528926));
#391=DIRECTION('center_axis',(-1.,0.,0.));
#392=DIRECTION('ref_axis',(0.,-0.9467624015922,-0.3219331528926));
#393=DIRECTION('',(1.,0.,0.));
#394=DIRECTION('center_axis',(0.,-0.894427190999916,0.447213595499958));
#395=DIRECTION('ref_axis',(0.,0.447213595499958,0.894427190999916));
#396=DIRECTION('',(0.,-0.447213595499958,-0.894427190999916));
#397=DIRECTION('',(1.,0.,0.));
#398=DIRECTION('center_axis',(-1.,0.,0.));
#399=DIRECTION('ref_axis',(0.,0.894427190999916,0.447213595499959));
#400=DIRECTION('center_axis',(-1.,0.,0.));
#401=DIRECTION('ref_axis',(0.,0.894427190999916,0.447213595499959));
#402=DIRECTION('',(-1.,0.,0.));
#403=DIRECTION('',(1.,0.,0.));
#404=DIRECTION('center_axis',(0.,0.894427190999916,0.447213595499958));
#405=DIRECTION('ref_axis',(0.,0.447213595499958,-0.894427190999916));
#406=DIRECTION('',(-1.,0.,0.));
#407=DIRECTION('',(0.,-0.447213595499958,0.894427190999916));
#408=DIRECTION('center_axis',(1.,0.,0.));
#409=DIRECTION('ref_axis',(0.,1.,0.));
#410=DIRECTION('',(0.,-1.,-3.49676543189026E-16));
#411=DIRECTION('',(0.,0.,1.));
#412=DIRECTION('center_axis',(-1.,0.,0.));
#413=DIRECTION('ref_axis',(0.,-0.707106781186547,-0.707106781186548));
#414=DIRECTION('',(0.,1.,0.));
#415=DIRECTION('center_axis',(-1.,0.,0.));
#416=DIRECTION('ref_axis',(0.,0.707106781186548,-0.707106781186548));
#417=DIRECTION('',(0.,0.,1.));
#418=DIRECTION('',(0.,-1.,-3.49676543189026E-16));
#419=DIRECTION('center_axis',(-1.,0.,0.));
#420=DIRECTION('ref_axis',(0.,-1.56380104141561E-15,1.));
#421=DIRECTION('center_axis',(-1.,0.,0.));
#422=DIRECTION('ref_axis',(0.,-1.56380104141561E-15,1.));
#423=DIRECTION('center_axis',(1.,0.,0.));
#424=DIRECTION('ref_axis',(0.,-0.707106781186547,-0.707106781186548));
#425=DIRECTION('',(1.,0.,0.));
#426=DIRECTION('',(-1.,0.,0.));
#427=DIRECTION('center_axis',(0.,0.,1.));
#428=DIRECTION('ref_axis',(0.,1.,0.));
#429=DIRECTION('',(-1.,0.,0.));
#430=DIRECTION('center_axis',(-1.,0.,0.));
#431=DIRECTION('ref_axis',(0.,0.707106781186548,-0.707106781186548));
#432=DIRECTION('',(1.,0.,0.));
#433=DIRECTION('center_axis',(0.,1.,0.));
#434=DIRECTION('ref_axis',(-1.,0.,0.));
#435=DIRECTION('',(1.,0.,0.));
#436=DIRECTION('center_axis',(0.,3.49676543189026E-16,-1.));
#437=DIRECTION('ref_axis',(0.,-1.,-3.49676543189026E-16));
#438=DIRECTION('center_axis',(0.,3.49676543189026E-16,-1.));
#439=DIRECTION('ref_axis',(0.,-1.,-3.49676543189026E-16));
#440=DIRECTION('',(-1.,0.,0.));
#441=DIRECTION('center_axis',(0.,-1.,0.));
#442=DIRECTION('ref_axis',(1.,0.,0.));
#443=CARTESIAN_POINT('',(0.,0.,0.));
#444=CARTESIAN_POINT('Origin',(0.875,0.227016823033692,3.47501665169244));
#445=CARTESIAN_POINT('',(0.875,0.0385915361286234,3.31071232656756));
#446=CARTESIAN_POINT('',(0.875,0.00341002528371237,3.58682005056743));
#447=CARTESIAN_POINT('Origin',(0.875,0.227016823033692,3.47501665169244));
#448=CARTESIAN_POINT('',(-0.625,0.00341002528371215,3.58682005056743));
#449=CARTESIAN_POINT('',(0.875,0.00341002528371245,3.58682005056743));
#450=CARTESIAN_POINT('',(-0.625,0.0385915361286234,3.31071232656756));
#451=CARTESIAN_POINT('Origin',(-0.625,0.227016823033692,3.47501665169244));
#452=CARTESIAN_POINT('',(0.875,0.0385915361286234,3.31071232656756));
#453=CARTESIAN_POINT('Origin',(0.875,-0.805149125504216,2.57498177645382));
#454=CARTESIAN_POINT('',(-0.625,-0.122737363262217,1.68756308540824));
#455=CARTESIAN_POINT('Origin',(-0.625,-0.805149125504216,2.57498177645382));
#456=CARTESIAN_POINT('',(0.875,-0.122737363262217,1.68756308540824));
#457=CARTESIAN_POINT('',(0.875,-0.122737363262217,1.68756308540824));
#458=CARTESIAN_POINT('Origin',(0.875,-0.805149125504216,2.57498177645382));
#459=CARTESIAN_POINT('Origin',(-0.625,0.25,1.68034107940555));
#460=CARTESIAN_POINT('',(-0.625,0.138196601125009,3.85639320225002));
#461=CARTESIAN_POINT('',(-0.625,-0.450000000000001,2.68));
#462=CARTESIAN_POINT('',(-0.625,0.361803398874988,3.85639320225002));
#463=CARTESIAN_POINT('Origin',(-0.625,0.249999999999999,3.80049150281253));
#464=CARTESIAN_POINT('',(-0.625,1.18342202598438,2.21315594803123));
#465=CARTESIAN_POINT('',(-0.625,0.449999999999999,3.68));
#466=CARTESIAN_POINT('',(-0.625,0.792110129921921,1.58));
#467=CARTESIAN_POINT('Origin',(-0.625,0.79211012992192,2.0175));
#468=CARTESIAN_POINT('',(-0.625,0.5,1.58));
#469=CARTESIAN_POINT('',(-0.625,0.749999999999999,1.58));
#470=CARTESIAN_POINT('',(-0.625,0.5,1.02));
#471=CARTESIAN_POINT('',(-0.625,0.5,0.840170539702777));
#472=CARTESIAN_POINT('',(-0.625,0.44,0.96));
#473=CARTESIAN_POINT('Origin',(-0.625,0.44,1.02));
#474=CARTESIAN_POINT('',(-0.625,0.0600000000000001,0.96));
#475=CARTESIAN_POINT('',(-0.625,0.125,0.96));
#476=CARTESIAN_POINT('',(-0.625,-2.62257407391769E-16,1.02));
#477=CARTESIAN_POINT('Origin',(-0.625,0.06,1.02));
#478=CARTESIAN_POINT('',(-0.625,-2.62257407391769E-16,1.58));
#479=CARTESIAN_POINT('',(-0.625,0.,0.840170539702777));
#480=CARTESIAN_POINT('',(-0.625,-0.0861620586640473,1.58));
#481=CARTESIAN_POINT('',(-0.625,0.749999999999999,1.58));
#482=CARTESIAN_POINT('Origin',(-0.625,-0.0861620586640474,1.64));
#483=CARTESIAN_POINT('Origin',(0.875,-0.0861620586640474,1.64));
#484=CARTESIAN_POINT('',(0.875,-0.0861620586640474,1.58));
#485=CARTESIAN_POINT('Origin',(0.875,-0.0861620586640474,1.64));
#486=CARTESIAN_POINT('',(0.875,-0.0861620586640474,1.58));
#487=CARTESIAN_POINT('Origin',(0.875,-0.75,2.08));
#488=CARTESIAN_POINT('',(0.875,0.138196601125009,3.85639320225002));
#489=CARTESIAN_POINT('',(0.875,0.249999999999999,4.08));
#490=CARTESIAN_POINT('',(0.875,0.13819660112501,3.85639320225002));
#491=CARTESIAN_POINT('Origin',(0.875,0.79211012992192,2.0175));
#492=CARTESIAN_POINT('',(0.875,1.18342202598438,2.21315594803123));
#493=CARTESIAN_POINT('',(0.875,0.792110129921921,1.58));
#494=CARTESIAN_POINT('Origin',(0.875,0.79211012992192,2.0175));
#495=CARTESIAN_POINT('',(0.875,0.792110129921921,1.58));
#496=CARTESIAN_POINT('',(0.875,1.18342202598438,2.21315594803123));
#497=CARTESIAN_POINT('Origin',(0.875,0.249999999999999,4.08));
#498=CARTESIAN_POINT('',(0.875,0.361803398874988,3.85639320225002));
#499=CARTESIAN_POINT('',(0.875,0.361803398874988,3.85639320225002));
#500=CARTESIAN_POINT('',(0.875,1.25,2.08));
#501=CARTESIAN_POINT('Origin',(0.875,0.,0.));
#502=CARTESIAN_POINT('',(0.875,0.,1.58));
#503=CARTESIAN_POINT('',(0.875,1.25,1.58));
#504=CARTESIAN_POINT('',(0.875,0.,1.02));
#505=CARTESIAN_POINT('',(0.875,0.,0.));
#506=CARTESIAN_POINT('',(0.875,0.06,0.96));
#507=CARTESIAN_POINT('Origin',(0.875,0.06,1.02));
#508=CARTESIAN_POINT('',(0.875,0.44,0.96));
#509=CARTESIAN_POINT('',(0.875,0.,0.96));
#510=CARTESIAN_POINT('',(0.875,0.5,1.02));
#511=CARTESIAN_POINT('Origin',(0.875,0.44,1.02));
#512=CARTESIAN_POINT('',(0.875,0.5,1.58));
#513=CARTESIAN_POINT('',(0.875,0.5,0.));
#514=CARTESIAN_POINT('',(0.875,1.25,1.58));
#515=CARTESIAN_POINT('Origin',(0.875,0.249999999999999,3.80049150281253));
#516=CARTESIAN_POINT('Origin',(0.875,0.249999999999999,3.80049150281253));
#517=CARTESIAN_POINT('Origin',(0.4375,0.06,1.02));
#518=CARTESIAN_POINT('',(0.4375,0.06,0.96));
#519=CARTESIAN_POINT('',(0.4375,0.,1.02));
#520=CARTESIAN_POINT('Origin',(0.875,0.,0.96));
#521=CARTESIAN_POINT('',(0.875,0.44,0.96));
#522=CARTESIAN_POINT('Origin',(0.875,0.44,1.02));
#523=CARTESIAN_POINT('',(0.875,0.5,1.02));
#524=CARTESIAN_POINT('Origin',(0.875,0.5,0.));
#525=CARTESIAN_POINT('',(0.875,0.5,1.58));
#526=CARTESIAN_POINT('Origin',(0.875,1.25,1.58));
#527=CARTESIAN_POINT('Origin',(0.875,1.25,1.58));
#528=CARTESIAN_POINT('',(0.4375,0.,1.58));
#529=CARTESIAN_POINT('Origin',(0.,0.,0.));
#530=UNCERTAINTY_MEASURE_WITH_UNIT(LENGTH_MEASURE(0.000393700787401575),
#535,'DISTANCE_ACCURACY_VALUE',
'Maximum model space distance between geometric entities at asserted c
onnectivities');
#531=UNCERTAINTY_MEASURE_WITH_UNIT(LENGTH_MEASURE(0.000393700787401575),
#535,'DISTANCE_ACCURACY_VALUE',
'Maximum model space distance between geometric entities at asserted c
onnectivities');
#532=(
GEOMETRIC_REPRESENTATION_CONTEXT(3)
GLOBAL_UNCERTAINTY_ASSIGNED_CONTEXT((#530))
GLOBAL_UNIT_ASSIGNED_CONTEXT((#535,#540,#539))
REPRESENTATION_CONTEXT('','3D')
);
#533=(
GEOMETRIC_REPRESENTATION_CONTEXT(3)
GLOBAL_UNCERTAINTY_ASSIGNED_CONTEXT((#531))
GLOBAL_UNIT_ASSIGNED_CONTEXT((#535,#540,#539))
REPRESENTATION_CONTEXT('','3D')
);
#534=DIMENSIONAL_EXPONENTS(1.,0.,0.,0.,0.,0.,0.);
#535=(
CONVERSION_BASED_UNIT('inch',#538)
LENGTH_UNIT()
NAMED_UNIT(#534)
);
#536=(
LENGTH_UNIT()
NAMED_UNIT(*)
SI_UNIT(.MILLI.,.METRE.)
);
#537=(
LENGTH_UNIT()
NAMED_UNIT(*)
SI_UNIT(.CENTI.,.METRE.)
);
#538=LENGTH_MEASURE_WITH_UNIT(LENGTH_MEASURE(25.4),#536);
#539=(
NAMED_UNIT(*)
SI_UNIT($,.STERADIAN.)
SOLID_ANGLE_UNIT()
);
#540=(
NAMED_UNIT(*)
PLANE_ANGLE_UNIT()
SI_UNIT($,.RADIAN.)
);
#541=SHAPE_DEFINITION_REPRESENTATION(#542,#543);
#542=PRODUCT_DEFINITION_SHAPE('',$,#545);
#543=SHAPE_REPRESENTATION('',(#322),#532);
#544=PRODUCT_DEFINITION_CONTEXT('part definition',#549,'design');
#545=PRODUCT_DEFINITION('#1 60 Degree 125R','#1 60 Degree 125R',#546,#544);
#546=PRODUCT_DEFINITION_FORMATION('',$,#551);
#547=PRODUCT_RELATED_PRODUCT_CATEGORY('#1 60 Degree 125R',
'#1 60 Degree 125R',(#551));
#548=APPLICATION_PROTOCOL_DEFINITION('international standard',
'automotive_design',2009,#549);
#549=APPLICATION_CONTEXT(
'Core Data for Automotive Mechanical Design Process');
#550=PRODUCT_CONTEXT('part definition',#549,'mechanical');
#551=PRODUCT('#1 60 Degree 125R','#1 60 Degree 125R',$,(#550));
#552=PRESENTATION_STYLE_ASSIGNMENT((#553));
#553=SURFACE_STYLE_USAGE(.BOTH.,#554);
#554=SURFACE_SIDE_STYLE('',(#555));
#555=SURFACE_STYLE_FILL_AREA(#556);
#556=FILL_AREA_STYLE('',(#557));
#557=FILL_AREA_STYLE_COLOUR('',#558);
#558=COLOUR_RGB('',0.749019607843137,0.749019607843137,0.749019607843137);
ENDSEC;
END-ISO-10303-21;
